Song name
# A B C D E F G H I J K L M N O P Q R S T U V W X Y Z

Ludacris - Welcome To Atlanta tab

Help us improve GuitareTab! Take a short survey!
"Welcome to Atlanta"
Ludacris feat. JD
Word of Mouf
2001

Intro/Pre-Chorus
e-|--------------|-----------5--|
B-|--------------|-----6--7-----|
G-|-----------3--|--9--------3--|
D-|-----3--4-----|-----3--4-----|
A-|--6-----------|--6-----------|
E-|--------------|--------------|


Verse/Chorus
e-|--------------|--------------|
B-|--------------|--------------|
G-|--------------|--------------|
D-|----4----3-6--|----4----3----|
A-|-6-----6------|-6-----6------|
E-|--------------|--------------|

e-|--------------|--------------|
B-|--------------|--------------|
G-|--------------|--9------8----|
D-|----4----3-6--|--9------9----|
A-|-6-----6------|--6------6----|
E-|--------------|--------------|
                           *

* The real piano chord played in the song is impossible to play on guitar.
This is the closest substitue I could find. A straight D power chord also works.
Related for Welcome To Atlanta tab