Song name
# A B C D E F G H I J K L M N O P Q R S T U V W X Y Z

Ludacris - Growing Pains tab

----------------------------------------------------------------------------
			     GROWING PAINS - Ludacris
----------------------------------------------------------------------------
Tabbed by: Chelsey K
Email: fabolous989@hotmail.com

Tuning: Standard

e|-14-12--------------------------------------------|
B|--------14--12h14p12-----14-12--------------------|
G|--------------------14---------14-13--14-14h13----| x3
D|--------------------------------------------------|
A|--------------------------------------------------|
E|--------------------------------------------------|

e|-----------------------------|
B|----12-14------14-12---------|
G|-14-------11---------14-14---|
D|-----------------------------|
A|-----------------------------|
E|-----------------------------|

The whole thing just repeats throughout the song. Listen to the song for the rhythm.

| h  hammer-on
| p  pull-off

============================================================================
Tap to rate this tab
# A B C D E F G H I J K L M N O P Q R S T U V W X Y Z