Song name
# A B C D E F G H I J K L M N O P Q R S T U V W X Y Z

Ludo - Ode To Kevin Arnold tab

-------------------------------------------------------------------------------
			Ode to Kevin Arnold - Ludo
-------------------------------------------------------------------------------
Tabbed by: Alex
Email: guitar_freak_214@yahoo.com

Tuning: EADGBe

-the intro is played in triplets, I found it best to finger pick it

intro: 2X
e|------0-----0-----0-----0-----1-----1-----1---1h3h1--------|
B|-----------------------------------------------------------|
G|----0-----0-----0-----0-----0-----0-----0------------------|
D|-----------------------------------------------------------|
A|--3-----3--------------------------------------------------|
E|--------------3-----3-----1-----1-----1--------------------|

-after the picking is done twice the chords come in (listen for the rhythm)

e|-------------------------------------------------|
B|-------------------------------------------------|
G|--5---5---5--------------------------------------|
D|--5---5---5---5---5---5---7---7---7---3---3---3--|
A|--3---3---3---5---5---5---7---7---7---3---3---3--|
E|--------------3---3---3---5---5---5---1---1---1--|

e|-------------------------------------------------|
B|-------------------------------------------------|
G|--5---5---5--------------------------------------|
D|--5---5---5---5---5---5---3---3---3--------------|
A|--3---3---3---5---5---5---3---3---3--------------|
E|--------------3---3---3---1---1---1--------------|

thats all I go so far, the pre chorus sounds like it's just the bass doing a fast walk 
I haven't gotten the chorus yet but enjoy and email me for any corrections. Ludo Rock Forver!

| /  slide up
| \  slide down
| h  hammer-on
| p  pull-off
| ~  vibrato
| +  harmonic
| x  Mute note
===============================================================================
Tap to rate this tab
# A B C D E F G H I J K L M N O P Q R S T U V W X Y Z