Song name
# A B C D E F G H I J K L M N O P Q R S T U V W X Y Z

Ludo - Love Me Dead Acoustic tab

These tabs are not 100% accurate but they close

Chords Used:
Dm  A  Gm  C   F   Bb   G

If you want to play with two guitars then have guitar 1 play these tabs and guitar two 
open and barre chords.
1st tab done by me watching them play on youtube. heres the link if you want to see
http://www.youtube.com/watch?v=oTiMrPYr9Zs

INTRO
e|--------------------------------------------|
B|----6-----6-----6-----6---------------------|
G|----7-----7-----7-----7---------------------|
D|--------------------------------------------|
A|--5-----5-----5-----5-----------------------|
E|--------------------------------------------|

VERSE
e|-5-----5-----5---5--5--5-------5-----5---5--5---5--|
b|-6-----6-----6---6--6--5-------5-----5---5--5---5--|
G|-7-----7-----7---7--7--6-------6-----6---6--6---6--|
D|-7-----7-----7---7--7--5-------5-----5---5--5---5--|
A|-5-----5-----5---5--5--7-------7-----7---7--7---7--|
E|-----------------------5-------5-----5---5--5---5--|

e|------3--------3---------5--------3--------|
b|------3--------3---------5--------5--------|
G|------3--------3---------6--------5--------|
D|------5--------5---------7--------5--------|
A|------5--------5---------7--------3--------|
E|------3--------5---------------------------|

CHORUS
e|-1-----1-----------1-----------1-----------1-----5-----5-----------5-----------5-----------5-|
b|-1-----1-----------1-----------1-----------1-----6-----6-----------6-----------6-----------6-|
G|-2-----2-----------2-----------2-----------2-----7-----7-----------7-----------7-----------7-|
D|-3-----3-----------3-----------3-----------3-----7-----7-----------7-----------7-----------7-|
A|-3-----3-----------3-----------3-----------3-----5-----5-----------5-----------5-----------5-|
E|-1-----1-----------1-----------1-----------1-------------------------------------------------|

e|-6-----6-----------6-----------6-----------6----\3-----3-----------3-----------3----/4-----4-|
b|-6-----6-----------6-----------6-----------6----\3-----3-----------3-----------3----/4-----4-|
G|-7-----7-----------7-----------7-----------7----\4-----4-----------4-----------4----/5-----5-|
D|-8-----8-----------8-----------8-----------8----\5-----5-----------5-----------5----/6-----6-|
A|-8-----8-----------8-----------8-----------8----\5-----5-----------5-----------5----/6-----6-|
E|-6-----6-----------6-----------6-----------6----\3-----3-----------3-----------3----/4-----4-|

e|-1-----1-----------1-----------1-----------1-----5-----5-----------5-----------5-----------5-|
b|-1-----1-----------1-----------1-----------1-----6-----6-----------6-----------6-----------6-|
G|-2-----2-----------2-----------2-----------2-----7-----7-----------7-----------7-----------7-|
D|-3-----3-----------3-----------3-----------3-----7-----7-----------7-----------7-----------7-|
A|-3-----3-----------3-----------3-----------3-----5-----5-----------5-----------5-----------5-|
E|-1-----1-----------1-----------1-----------1-------------------------------------------------|

VERSE
e|-5-----5-----5---5--5--5-------5-----5---5--5---5--|
b|-6-----6-----6---6--6--5-------5-----5---5--5---5--|
G|-7-----7-----7---7--7--6-------6-----6---6--6---6--|
D|-7-----7-----7---7--7--5-------5-----5---5--5---5--|
A|-5-----5-----5---5--5--7-------7-----7---7--7---7--|
E|-----------------------5-------5-----5---5--5---5--|

e|-5-----5-----5---5--5--5-------5-----5---5--5---5--|
b|-6-----6-----6---6--6--5-------5-----5---5--5---5--|
G|-7-----7-----7---7--7--6-------6-----6---6--6---6--|
D|-7-----7-----7---7--7--5-------5-----5---5--5---5--|
A|-5-----5-----5---5--5--7-------7-----7---7--7---7--|
E|-----------------------5-------5-----5---5--5---5--|

SOLO
e|--------------------------------------------|
B|--------------------------------------------|
G|---0h7--0h7s9s7-6~--------------------------|
D|-----------------------7-8-7-6--------------|
A|--------------------------------------------|
E|--------------------------------------------|

e|--------------------------------------------|
B|--------------------------------------------|
G|------0h7--0h7s9s7-6~-----------------------|
D|-------------------------7-8-7-6------------|
A|----------------------------------8-7-------|
E|--------------------------------------------|

e|----------6-5---666666666------------------------------------|
B|------6-5----------------------------------------------------|
G|--6-5--------------------------------------------------------|
D|------------------------- 00000000000000-h6-5h7-7h8-8h9-9h11-|
A|-------------------------------------------------------------|
E|-------------------------------------------------------------|

e|--------------------5-6-5-5-5-5-5-5---------|
B|--------------5-6-5-------------------------|
G|--------6-7-6-------------------------------|
D|--7-8-7-------------------------------------|
A|--------------------------------------------|
E|--------------------------------------------|

                                         [--repeat this section to your liking-]             
e|-5-1---1-------------------------------------------1-5-5-5--|
B|-----3---3------2-3-5-3h5-3h5-3h5-3h5-3h5-3h5-2-3-----------|
G|-----------3-2b---------------------------------------------|
D|------------------------------------------------------------|
A|------------------------------------------------------------|
E|------------------------------------------------------------|

VERSE
e|-5-----5-----5---5--5--5-------5-----5---5--5---5--|
b|-6-----6-----6---6--6--5-------5-----5---5--5---5--|
G|-7-----7-----7---7--7--6-------6-----6---6--6---6--|
D|-7-----7-----7---7--7--5-------5-----5---5--5---5--|
A|-5-----5-----5---5--5--7-------7-----7---7--7---7--|
E|-----------------------5-------5-----5---5--5---5--|

e|------3--------3---------5--------3--------|
b|------3--------3---------5--------5--------|
G|------3--------3---------6--------5--------|
D|------5--------5---------7--------5--------|
A|------5--------5---------7--------3--------|
E|------3--------5---------------------------|

CHORUS
e|-1-----1-----------1-----------1-----------1-----5-----5-----------5-----------5-----------5-|
b|-1-----1-----------1-----------1-----------1-----6-----6-----------6-----------6-----------6-|
G|-2-----2-----------2-----------2-----------2-----7-----7-----------7-----------7-----------7-|
D|-3-----3-----------3-----------3-----------3-----7-----7-----------7-----------7-----------7-|
A|-3-----3-----------3-----------3-----------3-----5-----5-----------5-----------5-----------5-|
E|-1-----1-----------1-----------1-----------1-------------------------------------------------|

e|-6-----6-----------6-----------6-----------6----\3-----3-----------3-----------3----/4-----4-|
b|-6-----6-----------6-----------6-----------6----\3-----3-----------3-----------3----/4-----4-|
G|-7-----7-----------7-----------7-----------7----\4-----4-----------4-----------4----/5-----5-|
D|-8-----8-----------8-----------8-----------8----\5-----5-----------5-----------5----/6-----6-|
A|-8-----8-----------8-----------8-----------8----\5-----5-----------5-----------5----/6-----6-|
E|-6-----6-----------6-----------6-----------6----\3-----3-----------3-----------3----/4-----4-|

e|-1-----1-----------1-----------1-----------1-----5-----5-----------5-----------5-----------5-|
b|-1-----1-----------1-----------1-----------1-----6-----6-----------6-----------6-----------6-|
G|-2-----2-----------2-----------2-----------2-----7-----7-----------7-----------7-----------7-|
D|-3-----3-----------3-----------3-----------3-----7-----7-----------7-----------7-----------7-|
A|-3-----3-----------3-----------3-----------3-----5-----5-----------5-----------5-----------5-|
E|-1-----1-----------1-----------1-----------1-------------------------------------------------|
Tap to rate this tab
# A B C D E F G H I J K L M N O P Q R S T U V W X Y Z