Song name
# A B C D E F G H I J K L M N O P Q R S T U V W X Y Z

Ludo - The Horror Of Our Love tab

Highlighted       Show chord diagrams
LUDO
THE HORROR OF OUR LOVE
Tabbed by Anthony "Rock" Arcuicci
myspace.com/rockwtf
rocktakesover at Gmail dot Com
www.toughguystakeover.com

D
I'm a killer Cold and wrathful
Bm
Silent sleeper I've been inside your bedroom
Em
I've murdered half the town
A
Left you love notes on their headstones I'll fill the
D
graveyards Until I have you
Bm

F#7

D
Moonlight walking I smell your softness
Bm
Carnivorous and lusting To track you down among the pines
Em
I want you stuffed into my mouth Hold you
A
down and tear you open Live in
D
side you Oh, love I'd never hurt you
Bm

F#
But I'll grind against your bones Until our marrows mix

F#7
I will eat you slowly


Dadd4	Bm
Ohhhhh

A6
The horror of our love

F#m		Bm
Never so much blood pulled through my veins

G	Bm
Ohhhhh

A6	 (single low E)
The horror of our love

F#m		G
Never so much Blood


D
I wake in terror Blackbirds screaming

Bm
Dark cathedrals spilling   Midnight on their alters
I'm your

E
servant  My immortal  Pale and

A
perfect  Such unholy heaving

F#
The statues close their eyes
The room is changing
Break my skin

A6
And drain me


D
Ancient language  Speak through fingers

Bm
The awful edges
Where you end and I begin
Inside your

E
mouth  I cannot see
There's

A
catastrophe  In everything I'm

D			B
touching  As I sweat and crush you

F#
And I hold your beating chambers
Until they beat no more
You die like angels sing


Ohhhhh
The horror of our love
Never so much blood pulled through my veins
Ohhhhh
The horror of our love
Never so much blood

D
----------------|
----------------|
-11--9---12--11-|
-12--11--14--12-|	X2
----------------|
----------------|

Bm
-14--12--15--14-|
-15--14--17--15-|
----------------|
----------------|	X2
----------------|
----------------|

Em			    A
----------------------------------------------------------------|
-7/8-8-7--7-------------------7/8--7--7-----7/8--8--8-----------|
------------9--9------------------------9--------------9\7------|
----------------------9-9\7-------------------------------------|
----------------------------------------------------------------|
----------------------------------------------------------------|
----------------------------------------------------------------|

G			    F#
----------------------------------------------------------------|
----------------------------------------------------------------|
-777--9--11-11---9P-7H-9~----7P-6-------------------------------|
-----------------------------------9--7--5----------------------|
--------------------------------------------9--7--5\4~----------|
----------------------------------------------------------------|


D
You're a ghost, love  Nightgown flowing

Bm
Your body blue and walking  Along the continental shelf
You are a

E
dream among the sharks

A
Beautiful and terrifying Living

D
restless We dance in dark

Bm
suspension

F#
And you bury me
In the ocean floor beneath you
Where they'll never hear us scream

Ohhhhh
The horror of our love
Never so much blood pulled through my veins
Ohhhhh
The horror of our love
Never so much blood
Tap to rate this tab
# A B C D E F G H I J K L M N O P Q R S T U V W X Y Z