Ludo - Drunken Lament tab

So i've noticed there's no tab for the lead guitar in the intro so i decided to do it by 
and this is what i got.It sounds very accurate to me.Let me know what you think.Enjoy :)

e|12---12------------------9-11-12-------------------------------------------|
B|--------12-9-13-13-12-13---------12-10-9--------9-------9------------------|
G|---9-------------------------------------9-9-11-----------11---------------|
D|--------------------------------------------------11-11------10101010------|
A|----------------------------------------------------------------------11---|
E|---------------------------------------------------------------------------|

e|-------------------|
B|---9-------9-------|
G|-------------------|
D|10------10------10-|
A|-----11------11----|
E|-------------------|

There you go :)
Tap to rate this tab
 
# A B C D E F G H I J K L M N O P Q R S T U V W X Y Z