Song name
# A B C D E F G H I J K L M N O P Q R S T U V W X Y Z

Ludo - Whipped Cream tab

Whipped cream solo by ludo
tabbed by Drew61195
i didnt see any tabs for this and its catchy so here it goes
Remember this is my first tab go easy on me!

                                                Harmonics
e|-----------------------------------------------5-|
B|/10-8b10r8-------------------------------------5-|
G|-----------9-7/5-7-7b9r7-5---7-9-10-9-7\5---5--5-| -not too sure about those harmonics
D|---------------------------7--------------7----5-|
A|-------------------------------------------------|
E|-------------------------------------------------|


=====Second solo======


e|--------------------------------|
B|/10-8b10r8----------------------|
G|-----------9-7/5-7-7b9r7-5---- -|
D|---------------------------7-5--|
A|--------------------------------|
E|--------------------------------|


e|-------------------------------------------------------------|
B|-/10-8b10r8--------------------------------------------------|
G|------------9-7/5-7-7b9r7-5----------------------------------|
D|---------------------------7-5----7-5--7-9-10-10-5-7-9-5h6-7-|
A|-------------------------------------------------------------|
E|-------------------------------------------------------------|

e|-----------------------------------------------5-|
B|/10-8b10r8-------------------------------------5-|
G|-----------9-7/5-7-7b9r7-5---7-9-10-9-7\5---5--5-|
D|---------------------------7--------------7----5-|
A|-------------------------------------------------|
E|-------------------------------------------------|


Congrats you learned it

well if you see any corrections please ask me to fix them thank you!
Tap to rate this tab
 
# A B C D E F G H I J K L M N O P Q R S T U V W X Y Z