Song name
# A B C D E F G H I J K L M N O P Q R S T U V W X Y Z

Ludwig Goransson - Greendale Is Where I Belong tab

Ludwig Göransson - Greendale Is Where I Belong
I think this is a more accurate tab that picks up the small variations in the song 
that the other tab posted does not.

Standard Tuning
Tabbed by: Tim Peng
                      
e|--------------------------------------------------|
B|--7-7---5-5---3-3---3-3---3-3---3-3---7-7---7-7---|
G|--------------------------------------------------|
D|-7-7---6-6---4-4---4-4---4-4---4-4---5-5---5-5----|
A|5-----4-----2-----0-------------------------------|
E|------------------------3-----2-----0-----5-------|x4


e|----------------------------------------------3---|
B|--3-3---3-3---3-3---3-3---3-3---3-3---3-3---3-----|
G|-2-2---2-2---2-2---2-2---2-2---2-2---2-2---2-2----|
D|0-----------------------0-------------------------|
A|------3-----2-----------------3-----2-------------|
E|------------------3-----------------------3-------|


e|--------------------------------------------------|
B|--3-3---3-3---3-3---3-3---3-3---3-3---3-3---3-3-2-|
G|-2-2---2-2---2-2---2-2---2-2---2-2---2-2---2-2--2-|
D|0-----------------------0-----0-----------------2-|
A|------3-----2-----------------------0-----0-----0-|
E|------------------3-------------------------------|
                                               Let A ring

e|--------------------------------------------------|
B|--7-7---5-5---3-3---3-3---3-3---3-3---7-7---------|
G|--------------------------------------------------|
D|-7-7---6-6---4-4---4-4---4-4---4-4---5-5----------|
A|5-----4-----2-----0-------------------------------|
E|------------------------3-----2-----0-------------|


e|--------------------------------------------------|
B|--7-7---5-5---3-3---3-3---3-3---3-3---7-7---7-7---|
G|--------------------------------------------------|
D|-7-7---6-6---4-4---4-4---4-4---4-4---5-5---5-5----|
A|5-----4-----2-----0-------------------------------|
E|------------------------3-----2-----0-----5-------|
Tap to rate this tab
# A B C D E F G H I J K L M N O P Q R S T U V W X Y Z