Song name
# A B C D E F G H I J K L M N O P Q R S T U V W X Y Z

Ludwig Goransson - Greendale Is Where I Belong tab

-------------------------------------------------------------------------------
                             Greendale Is Where I Belong - Ludwig Goransson
-------------------------------------------------------------------------------
Tabbed by: h4rsheys

Tuning: standard


e|---------------------------------------------------------------------------|
B|-----7---7--------5---5--------3---3--------3---3--------------------------|
G|---7---7--------6---6--------4---4--------2---2----------------------------|
D|-0-------------------------------------------------------------------------|
A|--------------4------------2------------0----------------------------------|
E|---------------------------------------------------------------------------|

e|---------------------------------------------------------------------------|
B|-----3---3--------3---3--------7---7--------7---7--------------------------|
G|---4---4--------2---2--------7---7--------7---7----------------------------|
D|---------------------------------------------------------------------------|
A|----------------------------------------0----------------------------------|
E|-3------------2------------0-----------------------------------------------|


Interlude:
e|-----------------------------------------(2)--|----------------------------|
B|-----3---3-----3---3------3---3-----3---3-----|--2~------------------------|
G|---4---4-----4---4------2---2-----2---2-------|--2~------------------------|
D|----------------------------------------------|--2~------------------------|
A|-2---------2----------0---------0-------------|--0~------------------------|
E|----------------------------------------------|----------------------------|
Tap to rate this tab
 
# A B C D E F G H I J K L M N O P Q R S T U V W X Y Z