Song name
# A B C D E F G H I J K L M N O P Q R S T U V W X Y Z

Ludwig Van Beethoven - Fur Elise tab

ok so i've taken tabs from others here and tried them but they didn't quite sound right 
i mixed things up a bit and mooshed them to together and ended up with what sounds right!

                             Fur Elise
                           Tuning-EADGBe(low to high)

e|12-11-12-11-12------------|-----------------|---------------------------|
B|---------------12-15-13---|---------------12|------------12-13(let ring)|
G|------------------------14|------------14---|---------13----------------|
D|--------------------------|---------14------|------14-------------------|
A|-------------------------0|---12-15---------|---11----------------------|
E|--------------------------|12---------------|12-------------------------|

e|12-11-12-11-12------------|-----------------|---------------------------|
B|---------------12-15-13---|---------------12|------------12-15-13-------|
G|------------------------14|------------14---|---------13----------14(let|
D|--------------------------|---------14------|------14--------------ring)|
A|-------------------------0|---12-15---------|---12----------------------|
E|--------------------------|12---------------|12-------------------------|


e|12-11-12-11-12------------|-----------------|---------------------------|
B|---------------12-15-13---|---------------12|------------12-13(let ring)|
G|------------------------14|------------14---|---------13----------------|
D|--------------------------|---------14------|------14-------------------|
A|-------------------------0|---12-15---------|---11----------------------|
E|--------------------------|12---------------|12-------------------------|

e|12-11-12-11-12------------|-----------------|---------------------------|
B|---------------12-15-13---|---------------12|------------12-15-13-------|
G|------------------------14|------------14---|---------13----------14(let|
D|--------------------------|---------14------|------14--------------ring)|
A|-------------------------0|---12-15---------|---12----------------------|
E|--------------------------|12---------------|12-------------------------|

e|12-11-12-11-12------------|---------------------------------|
B|---------------12-15-13---|---------------12--------15-13---|
G|------------------------14|---14-------14--------11-------14|
D|--------------------------|14-------14--------12------------|
A|-------------------------0|------15-------------------------|
E|--------------------------|---------------------------------|

e|1-3-0--------1-0---------0--------------------|
B|---------1-------3---0-----3-1-------3-1-0----|
G|-------0---0-------0-------------2------------|
D|-----------------------3-------2---2-------2-2|
A|-----------------------------0----------------|
E|----3------------3------------------------0---|


e|12-11-12-11-12------------|---------------------------------|
B|---------------12-15-13---|---------------12--------15-13---|
G|------------------------14|---14-------14--------11-------14|
D|--------------------------|14-------14--------12------------|
A|-------------------------0|------15-------------------------|
E|--------------------------|---------------------------------|

Well that's all of it besides the Piano Solo at the end. Hope You Enjoy.
For questions email me @ blakieboy@hotmail.com   LATER!
Tap to rate this tab
# A B C D E F G H I J K L M N O P Q R S T U V W X Y Z