Song name
# A B C D E F G H I J K L M N O P Q R S T U V W X Y Z

Ludwig Van Beethoven - Ode To Joy tab

Beauty composed by Bethoven
Standard Tuning ( E A D G B e )

|---------------------------------------|
|----------3-3--------------------------|
|---4-4-5-------5-4-2-------2-4-4---2-2-|
|----------------------5-5--------------|
|---------------------------------------|
|---------------------------------------|

|---------------------------------------|
|----------3-3--------------------------|
|---4-4-5-------5-4-2-------2-4-2-------|
|----------------------5-5---------5-5--|
|---------------------------------------|
|---------------------------------------|

|--------------------------------------------------|
|--------------------------------------------------|
|-----4--2-----2--4-5-4--2---2-4-5-4--2---2-2------|
|---5------5---------------5------------5----------|
|----------------------------------------------2---|
|--------------------------------------------------|

Thats it, very simple hope it helps
Tap to rate this tab
# A B C D E F G H I J K L M N O P Q R S T U V W X Y Z