Song name
# A B C D E F G H I J K L M N O P Q R S T U V W X Y Z

Ludwig Van Beethoven - Scottish tab

-------------------------------------------------------------------------------
		Scottish By Ludwig Van Beethoven
-------------------------------------------------------------------------------
Tabbed by:Ray

Tuning: Standard
Moderate ♪: 150

e|--------------------------0-------0--0--5--------5--5---0--------------|
B|---------2---------2--2------------------------------------------------|
G|--2--2-----------------------------------------------------------------|
D|-------------------2--------------2---------------------------2--------|
A|---------4----------------2-------------0--------7------2--------------|
E|-----------------------------------------------------------------------|

e|-----0-----------------------------------------------------------------|
B|--2-----3--2------2--0-----0-----0--2--0-------------------------------|
G|--------------2---------2----------------------------------------------|
D|--------2------------2-----------2-------------------------------------|
A|--4-----------4------------2-----------2-------------------------------|
E|-----------------------------------------------------------------------|

e|---------------------------0-------0--0--5--------5--5---0-------------|
B|----------2---------2--2-----------------------------------------------|
G|--2--2-----------------------------------------------------------------|
D|--2-----------------2--------------2-------------------------2---------|
A|----------4----------------2-------------0--------7------2-------------|
E|-----------------------------------------------------------------------|

e|-----0-----------------------------------------------------------------|
B|--2-----3--2------2--0-----0-----0--2----------------------------------|
G|--------------2---------2--------------2-------------------------------|
D|--------2------------2-----------2-------------------------------------|
A|--4-----------4------------2-----------4-------------------------------|
E|-----------------------------------------------------------------------|

e|------------0-----------------------------0--2--0----------------------|
B|------0--2------3--2-----2---0-----3-----------------------------------|
G|--2-------------------2---------2--------------------------------------|
D|----------------2------------2-----0------4----------------------------|
A|---------4------------4-------------------------4----------------------|
E|-----------------------------------------------------------------------|

e|--5--7--9--12---10--9--------9--7--5--7---11--12-----------------------|
B|-------------------------10-------------------------10-----------------|
G|-----------------------------------------------------------------------|
D|-----------------------------------------------------------------------|
A|--7-----0-----------------0-----7-------------------0------------------|
E|-----------------------------------------------------------------------|

e|------------0---------------------------0--2--0------------------------|
B|------0--2------3--2-----2---0-----3-----------------------------------|
G|--2-------------------2---------2--------------------------------------|
D|--2-------------2------------2-----0----4------------------------------|
A|---------4------------4------------0----------4------------------------|
E|-----------------------------------------------------------------------|

e|--5--7--9--12---10--9-------9---7--5--7---11--12-----------------------|
B|-------------------------10-------------------------10----------------|
G|-----------------------------------------------------------------------|
D|-----------------------------------------------------------------------|
A|--7-----0-----------------0-----7--------------------0-----------------|
E|-----------------------------------------------------------------------|

e|--------------------------0-------0--0--5--------5--5---0--------------|
B|---------2---------2--2------------------------------------------------|
G|--2--2-----------------------------------------------------------------|
D|-------------------2--------------2---------------------------2--------|
A|---------4----------------2-------------0--------7------2--------------|
E|-----------------------------------------------------------------------|

e|-----0-----------------------------------------------------------------||
B|--2-----3--2------2--0-----0-----0--2----------------------------------||
G|--------------2---------2--------------2-------------------------------||
D|--------2------------2-----------2-------------------------------------||
A|--4-----------4------------2-----------4-------------------------------||
E|-----------------------------------------------------------------------||

Enjoy. 
Tap to rate this tab
# A B C D E F G H I J K L M N O P Q R S T U V W X Y Z