Song name
# A B C D E F G H I J K L M N O P Q R S T U V W X Y Z

Ludwig Van Beethoven - Fur Elise tab

Hey,

Here are two tabs for this song, an easy one and a hard one,

Alex.

There is a part missing in the first tab but it still sounds good.

Easy tab:

e|---------------------------------------|\
B|-5-4-5-4-5-0-3-1----------0------0-1---| \
G|-----------------2------2------1-------|  \
D|----------------------2------2-------2-|   \
A|--------------------3------------------|    \  Play twice
E|---------------------------------------|    /  
                                             /   
e|------------------------------------|     /
B|-5-4-5-4-5-0-3-1----------0---1-0---|    /
G|-----------------2------2---------2-|   /
D|----------------------2-----2-------|  /
A|--------------------3---------------| /
E|------------------------------------|/

e|-------0----1-0------0----------------|
B|-0-1-3----------3------3-1----3-1-0---|
G|----------0---------------------------|
D|-------------------3--------2---------|
A|--------------------------------------|
E|------------------------------------0-|

e|---------------------------------------|\
B|-5-4-5-4-5-0-3-1----------0------0-1---| \
G|-----------------2------2------1-------|  \
D|----------------------2------2-------2-|   \
A|--------------------3------------------|    \  Play twice
E|---------------------------------------|    /  
                                             /   
e|------------------------------------|     /
B|-5-4-5-4-5-0-3-1----------0---1-0---|    /
G|-----------------2------2---------2-|   /
D|----------------------2-----2-------|  /
A|--------------------3---------------| /
E|------------------------------------|/

e|-------0----1-0------0----------------|
B|-0-1-3----------3------3-1----3-1-0---|
G|----------0---------------------------|
D|-------------------3--------2---------|
A|--------------------------------------|
E|------------------------------------0-|

e|---------------------------------------|\
B|-5-4-5-4-5-0-3-1----------0------0-1---| \
G|-----------------2------2------1-------|  \
D|----------------------2------2-------2-|   \
A|--------------------3------------------|    \  Play twice
E|---------------------------------------|    /  
                                             /   
e|------------------------------------|     /
B|-5-4-5-4-5-0-3-1----------0---1-0---|    /
G|-----------------2------2---------2-|   /
D|----------------------2-----2-------|  /
A|--------------------3---------------| /
E|------------------------------------|/



I didn't actually tab this out, i just got the tabs from another site.

Harder tab:



E||--12--11--|--12--11--12--7--10--8--|--5--------------5--|
B||----------|------------------------|--------------5-----|
G||----------|------------------------|-----------5--------|
D||----------|------------------------|--------7-----------|
A||----------|------------------------|-----7--------------|
E||----------|------------------------|--5-----------------|


                                                                     
--7--------0--4--7--|--8--------0--12--11--|--12--11--12--7--10--8--|
--------------------|----------------------|------------------------|
--------------------|----------------------|------------------------|
--------6-----------|--------7-------------|------------------------|
-----7--------------|-----7----------------|------------------------|
--0-----------------|--5-------------------|------------------------|


                                                                 
--5--------------5--|--7--------0--8--7--|--5--------0--12--11--|
--------------5-----|--------------------|----------------------|
-----------5--------|--------------------|----------------------|
--------7-----------|--------6-----------|--------7-------------|
-----7--------------|-----7--------------|-----7----------------|
--5-----------------|--0-----------------|--5-------------------|


                                                                   
--12--11--12--7--10--8--|--5--------------5--|--7--------0--4--7--|
------------------------|--------------5-----|--------------------|
------------------------|-----------5--------|--------------------|
------------------------|--------7-----------|--------6-----------|
------------------------|-----7--------------|-----7--------------|
------------------------|--5-----------------|--0-----------------|


                                                                     
--8--------0--12--11--|--12--11--12--7--10--8--|--5--------------5--|
----------------------|------------------------|--------------5-----|
----------------------|------------------------|-----------5--------|
--------7-------------|------------------------|--------7-----------|
-----7----------------|------------------------|-----7--------------|
--5-------------------|------------------------|--5-----------------|


                                                                      
--7--------0--8--7--|--5--------7--8--10--|--12--------------13--12--|
--------------------|---------------------|--------------------------|
--------------------|---------------------|--------------12----------|
--------6-----------|--------7------------|----------10--------------|
-----7--------------|-----7---------------|------10------------------|
--0-----------------|--5------------------|--8-----------------------|


                                                                     
--10------------12--10--|--8--------0--10--8--|--7-----------12-----|
------------------------|---------------------|---------------------|
------0-----10----------|---------------------|--------9--9------9--|
---------9--------------|--------7------------|---------------------|
--10--------------------|-----7---------------|-----7---------------|
------------------------|--5------------------|--0------------------|


                                                                              
--12--12--5--11--12--11--|--12--11--12--11--12--11--|--12--11--12--7--10--8--|
-------------------------|--------------------------|------------------------|
-------------------------|--------------------------|------------------------|
-------------------------|--------------------------|------------------------|
-------------------------|--------------------------|------------------------|
-------------------------|--------------------------|------------------------|


                                                                 
--5--------------5--|--7--------0--4--7--|--8--------0--12--11--|
--------------5-----|--------------------|----------------------|
-----------5--------|--------------------|----------------------|
--------7-----------|--------6-----------|--------7-------------|
-----7--------------|-----7--------------|-----7----------------|
--5-----------------|--0-----------------|--5-------------------|


                                                                   
--12--11--12--7--10--8--|--5--------------5--|--7--------0--8--7--|
------------------------|--------------5-----|--------------------|
------------------------|-----------5--------|--------------------|
------------------------|--------7-----------|--------6-----------|
------------------------|-----7--------------|-----7--------------|
------------------------|--5-----------------|--0-----------------|


                                                                         
--5--------7--8--10--|--12-------------13--12--|--10------------12--10--|
---------------------|--------------8----------|---------0--------------|
---------------------|-------------------------|------0-----10----------|
--------7------------|----------10-------------|------------------------|
-----7---------------|------10-----------------|--10--------------------|
--5------------------|--8----------------------|------------------------|


                                                                      
--8-----------10--8--|--7-----------12-----|--12--12--5--11--12--11--|
-----------5---------|---------------------|-------------------------|
---------------------|--------9--9------9--|-------------------------|
--------7------------|---------------------|-------------------------|
-----7---------------|-----7---------------|-------------------------|
--5------------------|--0------------------|-------------------------|


                                                                         
--12--11--12--11--12--11--|--12--11--12--7--10--8--|--5--------------5--|
--------------------------|------------------------|--------------5-----|
--------------------------|------------------------|-----------5--------|
--------------------------|------------------------|--------7-----------|
--------------------------|------------------------|-----7--------------|
--------------------------|------------------------|--5-----------------|


                                                                     
--7--------0--4--7--|--8--------0--12--11--|--12--11--12--7--10--8--|
--------------------|----------------------|------------------------|
--------------------|----------------------|------------------------|
--------6-----------|--------7-------------|------------------------|
-----7--------------|-----7----------------|------------------------|
--0-----------------|--5-------------------|------------------------|


                                                               
--5--------------5--|--7--------0--8--7--|--5--------8--8--0--|
--------------5-----|--------------------|--------------6--8--|
-----------5--------|--------------------|-----------9--5--5--|
--------7--------7--|--------6-----------|--------7--8--7--8--|
-----7--------7-----|-----7--------------|-----7--------------|
--5-----------------|--0-----------------|--5-----------------|


                                                                 
--------------1----0-|--0-----------6----5-|--5--3--1--0--------|
--1-----------1------|--------3------------|--------------3--1--|
--------2--------2---|-----3-----3--7--3---|--------------------|
-----3-----3---------|--3------------------|--3-----------------|
---------------------|---------------------|--------------------|
--1------------------|---------------------|--------------------|


                                                                 
----------------------|--------------------|--0--------0--1-----|
----------------------|--1-----------3--4--|--------1-----------|
--3-----2-----3h2h0h3-|-----2-----2-----2--|-----2-----2-----2--|
--3-------------------|--------------------|--------------0-----|
-----3-----3--3-------|--------3-----3-----|--------------------|
----------------------|--1-----------------|--0-----------------|


                                                                                
-----------------------|----3---3---3---3---3---3-|------8-7-------------------|
--1-----3h1h0h1-3----0-|--1-----------0---1---3---|----8-----10-8--------8h6---|
-----------------------|------0---2---------------|--9------------10-9-7-----7-|
-----2-------------3---|--------------------------|----------------------------|
-----------------------|--3-----------------------|----------8-----------------|
--3-----3-------3------|--------------------------|--8-----------------7-------|


                                                        
----3---3---3---3---3---3-|------8-7-------------------|
--------------0---1---3---|----8-----10-8--------8h6---|
--5---0---2---------------|--9------------10-9-7-----7-|
--------------------------|----------------------------|
--3-----------------------|----------8-----------------|
--------------------------|--8-----------------7-------|


                                                                   
--0---0---0---0---0---0---|--0---------0-----|--0------7--12--11--|
----6---4---0---4---0---4-|---------0-----4--|--------------------|
--4-----------------------|------------------|--------------------|
--------------------------|------------------|--------------------|
--------------------------|------------------|--------------------|
--4-----------------------|------------------|--------------------|


                                                                         
--12--11--12--11--12--11--|--12--11--12--7--10--8--|--5--------------5--|
--------------------------|------------------------|--------------5-----|
--------------------------|------------------------|-----------5--------|
--------------------------|------------------------|--------7-----------|
--------------------------|------------------------|-----7--------------|
--------------------------|------------------------|--5-----------------|


                                                                     
--7--------0--4--7--|--8--------0--12--11--|--12--11--12--7--10--8--|
--------------------|----------------------|------------------------|
--------------------|----------------------|------------------------|
--------6-----------|--------7-------------|------------------------|
-----7--------------|-----7----------------|------------------------|
--0-----------------|--5-------------------|------------------------|


                                                                
--5--------------5--|--7-----------8--7--|--5--------7--8--10--|
--------------5-----|--------------------|---------------------|
-----------5--------|-----------7--------|---------------------|
--------7-----------|--------6-----------|--------7------------|
-----7--------------|-----7--------------|-----7---------------|
--5-----------------|--0-----------------|--5------------------|


                                                                         
--12------------13--12--|--10-------------12--10--|--8--------0--10--8--|
-------------8----------|-------------------------|---------------------|
------0-----------------|-------------10----------|---------------------|
---------10-------------|----------9--------------|--------7------------|
------------------------|--10--10-----------------|-----7---------------|
--8---------------------|-------------------------|--5------------------|


                                                                           
--7-----0--0--12--0--|--12--12--5--11--12--11--|--12--11--12--11--12--11--|
---------------------|-------------------------|--------------------------|
---------------------|-------------------------|--------------------------|
---------------------|-------------------------|--------------------------|
-----7---------------|-------------------------|--------------------------|
--0------------------|-------------------------|--------------------------|


                                                                   
--12--11--12--7--10--8--|--5--------------5--|--7--------0--4--7--|
------------------------|--------------5-----|--------------------|
------------------------|-----------5--------|--------------------|
------------------------|--------7-----------|--------6-----------|
------------------------|-----7--------------|-----7--------------|
------------------------|--5-----------------|--0-----------------|


                                                                     
--8--------0--12--11--|--12--11--12--7--10--8--|--5--------------5--|
----------------------|------------------------|--------------5-----|
----------------------|------------------------|-----------5--------|
--------7-------------|------------------------|--------7-----------|
-----7----------------|------------------------|-----7--------------|
--5-------------------|------------------------|--5-----------------|


                                                               
--7-----------8--7--|--5-----------------|--9-----------------|
--------------------|--------------------|--8-----------------|
-----------7--------|--------------------|--9-----------------|
--------6-----------|--------------------|--8-----------------|
-----7--------------|--0--0--0--0--0--0--|--0--0--0--0--0--0--|
--0-----------------|--------------------|--------------------|


                                                                     
--10-----------12--13--|--13-----------13-----|--12-----------------|
--10-----------14--15--|--15-----------15-----|--13-----------------|
--10-------------------|--13-----------13-----|--14-----------------|
-----------------------|----------------------|---------------------|
--0---0--0--0--0---0---|--0---0--0--0--0---0--|--0---0--0--0--0--0--|
-----------------------|----------------------|---------------------|


                                                                
--10-----------8--7--|--5-----------5-----|--5-----8-----7-----|
---------------------|--7-----------7-----|--------------------|
--10-----------9--7--|--5-----------5-----|--5-----9-----7-----|
--0---0--0--0--0--0--|--7-----------------|--------------------|
--0---0--0--0--0--0--|--6--6--6--6--6--6--|--0--0--0--0--0--0--|
---------------------|--5--5--5--5--5--5--|--0--0--0--0--0--0--|


                                                               
--5-----------------|--------------------|--------------0--1--|
--------------------|--2-----------------|--3-----------2--3--|
--5-----------------|--0-----------------|--2-----------------|
--------------------|--2-----------------|--3-----------------|
--0--0--0--0--0--0--|--0--0--0--0--0--0--|--0--0--0--0--0--0--|
--------------------|--------------------|--------------------|


                                                               
--1-----------1-----|--1-----------------|--------------------|
--3-----------3-----|--3-----------------|--4-----------3--1--|
--------------------|--------------------|--0-----------------|
--------------------|--------------------|--------------3--1--|
--0--0--0--0--0--0--|--1--1--1--1--1--1--|--1--1--1--1--1--1--|
--------------------|--------------------|--------------------|


                                                                          
--------------------|--------------------|---------------|---------------|
--------------------|--------------------|--2------------|--0------------|
--3-----------2-----|--1-----------1-----|--2------------|--1------------|
--0-----------0-----|--0-----------0-----|--2------------|--0------------|
--1--1--1--1--1--1--|--2--2--2--2--2--2--|--3------------|--2------------|
--------------------|--------------------|--5------------|--0------------|


                                                              
-----------------0-----------|--------0--5--8--12--10--8--7--|
--------------1-----3--1--0--|-----1-------------------------|
--2--------2-----------------|--2----------------------------|
--------2--------------------|-------------------------------|
--0--3--------------0--------|--0------------------0---------|
-----------------------------|-------------------------------|


                                                              
--5--8--12--5--8--0--10--8--7--|--6--5--4--3--2--1--0--------|
-------------------------------|-----------------------4--3--|
-------------------------------|-----------------------------|
-------------------------------|-----------------------------|
--0----------------------------|-----------------------------|
-------------------------------|-----------------------------|


                                                                      
-----------------------------|--12--11--12--7--10--8--|--------------|
--2--1--0--------------------|------------------------|--------------|
-----------3--2--1--0--------|------------------------|--------------|
-----------------------4--3--|------------------------|--------------|
-----------------------------|------------------------|--------------|
-----------------------------|------------------------|--------------|


                                                                  
--------------|--------------|--------------|--5--------------5--|
--------------|--------------|--------------|--------------5-----|
--------------|--------------|--------------|-----------5--------|
--------------|--------------|--------------|--------7-----------|
--------------|--------------|--------------|-----7--------------|
--------------|--------------|--------------|--5-----------------|


                                                                     
--7--------0--4--7--|--8--------0--12--11--|--12--11--12--7--10--8--|
--------------------|----------------------|------------------------|
--------------------|----------------------|------------------------|
--------6-----------|--------7-------------|------------------------|
-----7--------------|-----7----------------|------------------------|
--0-----------------|--5-------------------|------------------------|


                                                                
--5--------------5--|--7--------0--8--7--|--5--------7--8--10--|
--------------5-----|--------------------|---------------------|
-----------5--------|--------------------|---------------------|
--------7-----------|--------6-----------|--------7------------|
-----7--------------|-----7--------------|-----7---------------|
--5-----------------|--0-----------------|--5------------------|


                                                                          
--12--------------13--12--|--10------------12--10--|--8--------0--10--8--|
--------------------------|------------------------|---------------------|
--------------12----------|------0-----10----------|---------------------|
----------10--------------|---------9--------------|--------7------------|
------10------------------|--10--------------------|-----7---------------|
--8-----------------------|------------------------|--5------------------|


                                                                           
--7-----------12-----|--12--12--5--11--12--11--|--12--11--12--11--12--11--|
---------------------|-------------------------|--------------------------|
--------9--9------9--|-------------------------|--------------------------|
---------------------|-------------------------|--------------------------|
-----7---------------|-------------------------|--------------------------|
--0------------------|-------------------------|--------------------------|


                                                                   
--12--11--12--7--10--8--|--5--------------5--|--7--------0--4--7--|
------------------------|--------------5-----|--------------------|
------------------------|-----------5--------|--------------------|
------------------------|--------7-----------|--------6-----------|
------------------------|-----7--------------|-----7--------------|
------------------------|--5-----------------|--0-----------------|


                                                                     
--8--------0--12--11--|--12--11--12--7--10--8--|--5--------------5--|
----------------------|------------------------|--------------5-----|
----------------------|------------------------|-----------5--------|
--------7-------------|------------------------|--------7-----------|
-----7----------------|------------------------|-----7--------------|
--5-------------------|------------------------|--5-----------------|


                                                                    
--7-----------8--7--|--5------------|--------------|--------------||
--------------------|---------------|--------------|--------------||
-----------7--------|--5------------|--------------|--------------||
--------6-----------|---------------|--------------|--------------||
-----7--------------|---------------|--------------|--------------||
--0-----------------|--5------------|--------------|--------------||
Tap to rate this tab
# A B C D E F G H I J K L M N O P Q R S T U V W X Y Z