Song name
# A B C D E F G H I J K L M N O P Q R S T U V W X Y Z

Ludwig Van Beethoven - Ode To Joy tab

E-|---Author:-Ludwing-Van-Beethoven----------------|
B-|---Transcription-by:Christian Liang-------------|
G-|---E-Mail:christian.liang@gmail.com-------------|
D-|---http://www.chrisliang.com--------------------|
A-|------------------------------------------------|
E-|---Enjoy!---------------------------------------|


Symphony No 9 - theme (Ode To Joy) - Ludwig Van Beethoven (1770-1827)
Transcription in Key of C. Originally in D.

I have included the left (LH) and right (RH) hand fingering.
p = pulgar = thumb
i = indice = index
m = medio = middle
a = anular = ring

e--0------0------1------3-------3------1------0-----------|
B---------------------------------------------------3-----|
G-----0-------0-----0-------0------0-------0-----0-----0--|
D---------2-------------2--------------0------------0-----|
A--3-------------3--------------2-------------2-----------|
E---------------------------------------------------------|

LH 3      2      1      4       4      1      2     4
                 3      2       1

RH m  i   m   i  m  i   m   i   m  i   m   i  m  i  m  i
   p      p      p      p       p      p      p     p

==========================================================


e-----------------------0-------0-------------------------|
B--1------1------3-------------------------3---3----------|
G-----0-------0-----0-------0------0-------------0-----0--|
D---------2-------------2--------------0------------0-----|
A--0-------------0----------------------------------------|
E-------------------------------3--------------3----------|

LH 1      1      4      2       3          4   4
          2                                    3

RH m  i   m   i  m  i   m   i   m  i   p   i  m  i  p  i
   p      p      p      p       p             p

==========================================================

e--0------0------1------3-------3------1------0-----------|
B---------------------------------------------------3-----|
G-----0-------0-----0-------0------0-------0-----0-----0--|
D---------2-------------2--------------0------------0-----|
A--3-------------3--------------2-------------2-----------|
E---------------------------------------------------------|

LH 3      2      1      4       4      1      2     4
                 3      2       1

RH m  i   m   i  m  i   m   i   m  i   m   i  m  i  m  i
   p      p      p      p       p      p      p     p


==========================================================

e-----------------------0---------------------------------|
B--1------1------3--------------3----------1---1----------|
G-----0-------0-----0-------0------0-------------0-----0--|
D---------2-------------2--------------0------------2-----|
A--0-------------0-----------------------------3----------|
E-------------------------------3-------------------------|

LH 1      1      4      2       4          1   1    2
          2                     3              3

RH m  i   m   i  m  i   m   i   m  i   p   i  m  i  p  i
   p      p      p      p       p             p

===========================================================

e----------------0---------------------0-1-0--------------|
B--3------3-------------1-------3-----------------1-------|
G-----0-------0-----0-------0------0-----------0-----0----|
D---------0-------------2-------------------------2-------|
A--2-------------3--------------2----------3--------------|
E---------------------------------------------------------|

LH 4      4      3      1       4        1 3      1
   2                    2       2                 2

RH m  i   m   i  m  i   m   i   m  i   m i m   i  m  i
   p      p      p      p       p          p      p

==========================================================

e-------0-1-0---------------------------------------------|
B--3------------3----1---3---0----------------------------|
G-----0-------1---1--2---2---0----------------------------|
D--------------------2---0---0----------------------------|
A--2-----------------0------------------------------------|
E-----------0------------2---3----------------------------|

LH 4      1   1 4 1  1   4
   2                 3   3
                     2   2   3

RH m  i m i m i m i  a   a   a
   p        p        m   m   m
  	             i   i   i
                     p   p   p


============================================================


e--0------0------1------3-------3------1------0-----------|
B---------------------------------------------------3-----|
G-----0-------0-----0-------0------0-------0-----0-----0--|
D---------2-------------2--------------0------------0-----|
A--3-------------3--------------2-------------2-----------|
E---------------------------------------------------------|

LH 3      2      1      4       4      1      2     4
                 3      2       1

RH m  i   m   i  m  i   m   i   m  i   m   i  m  i  m  i
   p      p      p      p       p      p      p     p

===========================================================

e-----------------------0---------------------------------|
B--1------1------3--------------3----------1---1----------|
G-----0-------0-----0-------0------0-----------0----------|
D---------2-------------2--------------0-------2----------|
A--0-------------0-----------------------------3----------|
E-------------------------------3-------------------------|

LH 1      1      4      2       4          1   1
          2                     3              2
					       3

RH m  i   m   i  m  i   m   i   m  i   p   i   a
   p      p      p      p       p              m
					       i
                                               p
Tap to rate this tab
# A B C D E F G H I J K L M N O P Q R S T U V W X Y Z