Ludwig Van Beethoven - 9th Symphony tab

Drop D Tuning: EBGDAD
Tabbed for Left Handed Guitar

E-12-12-13-15-15-13-12-------------12-12---------|
B----------------------15-13-13-15---------15-15-|
G------------------------------------------------|
D------------------------------------------------|
A------------------------------------------------|
D------------------------------------------------|

E-12-12-13-15-15-13-12-------------12------------|
B----------------------15-13-13-15----15---13-13-|
G------------------------------------------------|
D------------------------------------------------|
A------------------------------------------------|
D------------------------------------------------|

E------------------------------------------------|
B------------------------------------------------|
G------------------------------------------------|
D-14-14-15-17-17-15-14-12-10-10-12-14-14---12-12-|
A-14-14-15-17-17-15-14-12-10-10-12-14-14---12-12-|
D-14-14-15-17-17-15-14-12-10-10-12-14-14---12-12-|

E------------------------------------------------|
B------------------------------------------------|
G------------------------------------------------|
D-14-14-15-17-17-15-14-12-10-10-12-14-12---10-10-|
A-14-14-15-17-17-15-14-12-10-10-12-14-12---10-10-|
D-14-14-15-17-17-15-14-12-10-10-12-14-12---10-10-|

E-------12------12-13-12-------12-13-12--------------|
B-15-15----13-15---------13-15----------15-----------|
G----------------------------------------------------|
D------------------------------------------10-12---5-|
A------------------------------------------10-12---5-|
D------------------------------------------10-12---5-|

E-12-12-13-15-15-13-12-------------12------------|
B----------------------15-13-13-15---------------|
G------------------------------------------------|
D-------------------------------------12---10-10-|
A-------------------------------------12---10-10-|
D-------------------------------------12---10-10-|
Tap to rate this tab
 
# A B C D E F G H I J K L M N O P Q R S T U V W X Y Z