Ludwig Van Beethoven - Moonlight Sonata tab

Beethoven - Moonlight Sonata for guitar
Tabbed by  LennonsDisciple -- Look for me on Youtube
From a guitar sheet music. 
                                    
                             
E||------0------0------0------0--|------0------0------0------0--|
B||----2------2------2------2----|----2------2------2------2----|
G||--1------1------1------1------|--1------1------1------1------|
D||------------------------------|------------------------------|
A||--4---------------------------|--2---------------------------|
E||------------------------------|------------------------------|


                                                              
------0------0------2------2--|------------------------------|
----2------2------3------3----|------7------5------4------4--|
--2------2------2------2------|----5------6------6------5----|
------------------------------|--6------6------6------4------|
--0---------------------------|------------------------------|
----------------2-------------|--4-------------4-------------|


                                                              
------------------------------|------2------2------2------2--|
-------------5------5------5--|----4------4------4------4----|
------6----6------6------6----|--1------1------1------1------|
----6----6------6------6------|------------------------------|
--7---------------------------|--3---------------------------|
--4---------------------------|------------------------------|


                                 E                            
------0------0------2------2--|------0------0----------------|
----2------2------2------2----|----0------0--------4------4--|
--1------1------2------2------|--1------1--------4------4----|
------------------------------|----------------7------7------|
--4---------------------------|--2---------------------------|
----------------2-------------|----------------7-------------|


                                                              
------------------------------|------------------------------|
------5------5------5------5--|------5------5------5------5--|
----4------4------4------4----|----4------4------4------4----|
--6------6------6------6------|--5------5------5------5------|
------------------------------|--4---------------------------|
--0---------------------------|------------------------------|






                                                              
------------------------------|------0------0------0------0--|
------6------6------6------6--|----1------0------2------2----|
----4------4------4------4----|--0------0------0-------------|
--5------5------5------5------|-----------------------4------|
------------------------------|--3------2------1------1------|
--5---------------------------|------------------------------|


  Bm                             Bm            F#             
------------------------------|------------------------------|
------3------3------2------2--|------3------3------2------2--|
----4------4------4------4----|----4------4------3------3----|
--4------4------5------2------|--4------4------4------4------|
--2---------------------------|------------------------------|
----------------0------3------|--2-------------2-------------|


                                                              
------2------2------2------2--|------3------3------3------3--|
----3------3------4------4----|----5------5------5------5----|
--4------4------4------4------|--4------4------4------4------|
------------------------------|------------------------------|
--2---------------------------|------------------------------|
------------------------------|---------0------3------0------|


                                                              
------2------2------2------2--|------3------3------3------3--|
----4------4------4------4----|----5------5------5------5----|
--4------4------4------4------|--4------4------4------4------|
------------------------------|------------------------------|
--2---------------------------|------------------------------|
------------------------------|---------0------3------0------|


                                                              
------2------2------1------1--|------4------4------2------2--|
----4------4------3------3----|----2------2------2------2----|
--4------4------4------4------|--0------0------2------2------|
------------------------------|------------------------------|
--2---------------------------|------------------------------|
----------------4-------------|--1-------------2-------------|


                                                              
------------------------------|------------------------------|
------3------3------4------4--|------------------------------|
----4------4------2------2----|------2------2------1------1--|
--5------5------4------4------|----4------4------4------3----|
--2-------------3-------------|--4------4------4------4------|
------------------------------|------------------------------|


                                                              
-------------2------5------5--|------7------7------7------7--|
------2----2------7------7----|----9------9------9------9----|
----2----2------6------6------|--6------6------6------6------|
--4---------------------------|------------------------------|
------------------------------|--8---------------------------|
------------------------------|------------------------------|


                                                              
------5------5------5------5--|------4------4------4------4--|
----7------7------7------7----|----7------7------7------7----|
--6------6------5------6------|--8------8------8------8------|
--4---------------------------|-----------------------6------|
-----------------------4------|------------------------------|
----------------5-------------|--8---------------------------|


                                  Cm                                 
-------9------9------5------6--|--8---------------------------------|
-----9------9------7------5----|-----------9-------10-------7-------|
--9-------9------8------6------|--------8-------8--------8-------8--|
--11--------------------4------|-----10------10-------10------10----|
-----------------9-------------|--11--------------------------------|
--9----------------------------|------------------------------------|


                                                               
------------------------------|---------9------12------9------|
------4------4------4------4--|------9------9-------9------9--|
----5------5------5------5----|----9------9-------9------9----|
---------6------7------4------|--6----------------------------|
------------------------------|-------------------------------|
--4---------------------------|--0----------------------------|


                                               
----------------0-------------|----|----|----||
---------2-------------2------|----|----|----||
------1------1------1------1--|----|----|----||
----2------2------2------2----|----|----|----||
------------------------------|----|----|----||
--0---------------------------|----|----|----||


Tap to rate this tab
 
# A B C D E F G H I J K L M N O P Q R S T U V W X Y Z