Song name
# A B C D E F G H I J K L M N O P Q R S T U V W X Y Z

Ludwig Van Beethoven - Joyful Joyful tab

This is my first tab, if you dont like it than i dont care,

Tabbed by: goodlooker20
from symphany #9
name: joyful joyful
and whatever there is left of the information that is supposed to be right here

E|-0-0-1-3-3-1-0---------0-0---------0-0-1-3-3-1-0---------0------------|
B|---------------3-1-1-3-----3-3-------------------3-1-1-3---3-1-1------|
G|----------------------------------------------------------------------|
D|----------------------------------------------------------------------|
A|----------------------------------------------------------------------|
E|----------------------------------------------------------------------|

E|-----1-----1-0-----1-0------3-----0-0-1-3-3-1-0---------0-------------|
B|-3-3---1-3-----1-3----3-1-3---------------------3-1-1-3---3-1-1-------|
G|----------------------------------------------------------------------|
D|----------------------------------------------------------------------|
A|----------------------------------------------------------------------|
E|----------------------------------------------------------------------|

Thanks for playing
Tap to rate this tab
 
# A B C D E F G H I J K L M N O P Q R S T U V W X Y Z