Song name
# A B C D E F G H I J K L M N O P Q R S T U V W X Y Z

Ludwig Van Beethoven - Turkish March From The Ruins Of Athens Op 113 tab

Title: Turkish March from The Ruins of Athens, Op 113
Composer: Beethoven
Transcribed by : maru...


                  2/4
                             E E E E   E E E E   S S S S E E   E E Q
                E|---------|-0-------|-0-----9-|-7-5-4-2-0---|-----0---|
                B|---------|-4-2-2-2-|-4-2-2---|-----------3-|-2-3-----|
                G|---------|---------|---------|-------------|---------|
Acoustic Guitar D|---------|---------|---------|-------------|---------|
                A|---------|---------|---------|-------------|---------|
                E|---------|---------|---------|-------------|---------|
                 |
                 |           E E E E   E E E E   S S S S E E   E E Q
                E|---------|---------|-------5-|-4-2-0-------|---------|
                B|---------|-2-------|-2-------|-------3-2-0-|---0-2---|
                G|---------|-5-2-2-2-|-5-2-2---|-------------|-2-------|
Acoustic Guitar D|---------|---------|---------|-------------|---------|
                A|---------|---------|---------|-------------|---------|
                E|---------|---------|---------|-------------|---------|
                 |
                 |           E E E E   E E E E   E   E   E E   E E Q
                E|---------|---------|---------|-------------|---------|
                B|---------|---------|---------|-------------|---------|
                G|---------|---------|---------|-------------|---------|
Acoustic Guitar D|---------|---2-2-2-|---2-2-2-|-----2---2-2-|-2-2-2---|
                A|---------|---4-4-4-|---4-4-4-|-----4---4---|-0-0-0---|
                E|---------|-0-5-5-5-|-0-5-5-5-|-0---5---5---|---------|
                 |
                 |                               Q       E E   E E Q
                E|---------|---------|---------|-------------|---------|
                B|---------|---------|---------|-------------|---------|
                G|---------|---------|---------|-------------|---------|
Acoustic Guitar D|---------|---------|---------|-------------|---------|
                A|---------|---------|---------|-------------|---------|
                E|---------|---------|---------|-----------0-|-0-0-0---|


   E E E E   E E E E   S S S S E E   E. SQ     S S E E E   S S E E E
E|-0-------|-0-----9-|-7-5-4-2-0-1-|-2-------|-5+5-2-2-2-|-7+7-4-4-4-|
B|-4-2-2-2-|-4-2-2---|-------------|---------|-9---------|-10--------|
G|---------|---------|-------------|---------|-----------|-----------|
D|---------|---------|-------------|---------|-----------|-----------|
A|---------|---------|-------------|---------|-----------|-----------|
E|---------|---------|-------------|---------|-----------|-----------|
 |                                             2           4
 |
 | E E E E   E E E E   S S S S E E   E. SQ     E   E E E   E   E E E
E|---------|-------5-|-4-2-0-------|---------|-----------|-----------|
B|-2-------|-2-------|-------3-2-0-|---------|-----------|-0---0-0-0-|
G|-5-2-2-2-|-5-2-2---|-------------|-2-------|-2---2-2-2-|-----------|
D|---------|---------|-----------3-|-4-------|-----------|-----------|
A|---------|---------|-------------|---------|-----------|-----------|
E|---------|---------|-------------|---------|-----------|-----------|
 |
 | E E E E   E E E E   E   E   E E   E E Q     E   E E E   E   E E E
E|---------|---------|-------------|---------|-----------|-----------|
B|---------|---------|-------------|---------|-----------|-----------|
G|---------|---------|-------------|---------|-----------|-----------|
D|---2-2-2-|---2-2-2-|-----2---2---|---------|-----4-4---|-----2-2---|
A|---4-4-4-|---4-4-4-|-----4---4-4-|---------|-----0-0---|-----2-2---|
E|-0-5-5-5-|-0-5-5-5-|-0---5---5---|-2-------|-----2-2---|-----0-0---|
 |
 |                                   Q   E E   E   E E E   E   E E E
E|---------|---------|-------------|---------|-----------|-----------|
B|---------|---------|-------------|---------|-----------|-----------|
G|---------|---------|-------------|---------|-----------|-----------|
D|---------|---------|-------------|---------|-----------|-----------|
A|---------|---------|-------------|---------|-----------|-----------|
E|---------|---------|-------------|-----2---|-2-------2-|-0-------0-|


   S S E S S E   S S E S S E   E  E E E   E  E E E   S S S S E E   E E E. S
E|-7+7-4-7+7-4-|-9+9-5-9+9-5-|-12-9-9-9-|-12-9-9-9-|-7-5-4-2-0---|-----0--11|
B|-10----10----|-12----12----|-16-------|-16-------|-0---------3-|-2-3----13|
G|-------------|-------------|----6-6-6-|----6-6-6-|-------------|----------|
D|-------------|-------------|----------|----------|---7-6-4-2-0-|---0-2----|
A|-------------|-------------|----------|----------|-------------|-4--------|
E|-------------|-------------|----------|----------|-------------|----------|
 | 4     4       5     5       8          8
 |
 | E   E E   E   E   E E   E   E  E E E   E  E E E   S S S S E E   E E Q
E|-------------|-------------|-9--5-5-5-|-9--5-5-5-|-4-2-0-------|----------|
B|-0---0-0---0-|-2---2-2---2-|----------|----------|-------3-2-0-|---0-2----|
G|-------------|-------------|----------|----------|-------------|-2--------|
D|-------------|-------------|----------|----------|-------------|----------|
A|-------------|-------------|----------|----------|-------------|----------|
E|-------------|-------------|----------|----------|-------------|----------|
 |
 | E   E E   E   E   E E   E   E  E E E   E  E E E   E   E   E E
E|-------------|-------------|----------|----------|-------------|----------|
B|-------------|-------------|----------|----------|-------------|----------|
G|-------------|-------------|----------|----------|-------------|----------|
D|-----2-----2-|-----2-----2-|----2-2-2-|----2-2-2-|-----2-------|----------|
A|-----2-----2-|-----4-----4-|----0-0-0-|----0-0-0-|-----0---0---|----------|
E|-----0-----0-|-0---5-0---5-|----0-0-0-|----0-0-0-|-----0---0---|----------|
 |
 | E   E E   E                                       Q       E E   Q   E E
E|-------------|-------------|----------|----------|-------------|----------|
B|-------------|-------------|----------|----------|-------------|----------|
G|-------------|-------------|----------|----------|-------------|-------2--|
D|-------------|-------------|----------|----------|-------------|----------|
A|-------------|-------------|----------|----------|-------------|-----0----|
E|-0-----0-----|-------------|----------|----------|-----------0-|----------|


   E  E E E   E  E E E   S S S S E E   E. SE SS  SSE E S S  S SE E S S
E|-12-9-9-9-|-12-9-9-9-|-7-5-4-2-0-1-|-2------2|-5-2-2-2-4|-7--4-4-4-4|
B|----------|-16-------|-0-----------|---------|-9--------|-10--------|
G|-9--6-6-6-|----6-6-6-|-------------|---------|----------|-----------|
D|----------|-14-------|---7-6-4-2-3-|-4-------|----------|-----------|
A|----------|----------|-------------|---------|----------|-----------|
E|----------|----------|-------------|---------|----------|-----------|
 |
 | E  E E E   E  E E E   S S S S E E   E. SQ     E E E E    E  E E E
E|-9--5-5-5-|-9--5-5-5-|-4-2-0-------|---------|----------|-----------|
B|----------|-13-------|-------3-2-0-|---------|----------|-0--0-0-0--|
G|----------|----------|-------------|-2-------|-2-2-2-2--|----1-1-1--|
D|----------|----------|-------------|---------|---4-4----|-----------|
A|----------|----------|-------------|---------|----------|-----------|
E|----------|----------|-------------|---------|----------|-----------|
 |
 | E  E E E   E  E E E   E   E   E E   E E E E   E E E E    E  E E E
E|----------|----------|-------------|---------|----------|-----------|
B|----------|----------|-------------|---------|----------|-----------|
G|----------|----------|-------------|---------|----------|-----------|
D|----2-2-2-|----2-2-2-|-----2-------|---------|----------|----2-2----|
A|----0-0-0-|----0-0-0-|-----0---0-4-|-4-------|---4-4----|----2-2----|
E|----0-0-0-|----0-0-0-|-----0---0---|-----2---|---2-2----|----0-0----|
 |
 |                                     E E Q
E|----------|----------|-------------|---------|----------|-----------|
B|----------|----------|-------------|---------|----------|-----------|
G|----------|----------|-------------|---------|----------|-----------|
D|----------|----------|-------------|---------|----------|-----------|
A|----------|----------|-------------|---------|----------|-----------|
E|----------|----------|-------------|-2-------|----------|-----------|


   S SS S S S S S  S SS S S S S S   E  E E S S   E  E E E   S  S  S  S  E  E
E|-7--4-4-7+7-4-5|-9--5-5-9+9-5-11|-12-9-9-9-11|-12-9-9-9-|-7--17-16-14-12-16|
B|-10-----10-----|-12-----12------|------------|----------|------------------|
G|---------------|----------------|-9--6-6-6---|-9--6-6---|----14-13-11-9--13|
D|---------------|----------------|------------|----------|------------------|
A|---------------|----------------|------------|----------|------------------|
E|---------------|----------------|------------|----------|------------------|
 |
 | E  E   E   E    E  E   E   E     E  E E E     E  E E E   S  S  S  S  E  E
E|---------------|----------------|-9--5-5-5---|-9--5-5-17|-16-14-12-10-9--10|
B|-0--0---0---0--|-2--2---2---2---|-13---------|-13-------|----------------12|
G|----1-------1--|----2-------2---|------------|----------|------------------|
D|---------------|----------------|------------|----------|------------------|
A|---------------|----------------|------------|----------|------------------|
E|---------------|----------------|------------|----------|------------------|
 |
 | E  E   E   E    E  E   E   E     E  E E E     E  E E E   E     E     E  E
E|---------------|----------------|------------|----------|------------------|
B|---------------|----------------|------------|----------|------------------|
G|---------------|----------------|------------|----------|------------------|
D|----2---2------|----2---2-------|----2-2-2---|----2-2-2-|-------2-----2----|
A|----2---2------|----0---0-------|----0-0-0---|----0-0-0-|-------0-----0----|
E|----0---0------|----0---0-------|----0-0-0---|----0-0-0-|-------0-----0----|
 |
 |                                                          Q           E  E
E|---------------|----------------|------------|----------|------------------|
B|---------------|----------------|------------|----------|------------------|
G|---------------|----------------|------------|----------|------------------|
D|---------------|----------------|------------|----------|------------------|
A|---------------|----------------|------------|----------|------------------|
E|---------------|----------------|------------|----------|----------------0-|


   E S S E E   E S S E  E   E  S  S  Q     E S S E  S S   E  S  S  E  S  S
E|---9-9-9-9-|-8-8-9-11-4-|-12-12-11-9---|-8-8-9-11-4-15|-16-11-15-16-11-11|
B|-----------|------------|--------------|--------------|------------------|
G|---6-6-6-6-|-5-5-6-8----|-9--9--8--6---|-5-5-6-8------|-13-8-----13-8----|
D|-----------|----------6-|--------------|----------6---|------------------|
A|-----------|------------|--------------|--------------|------------------|
E|-----------|------------|--------------|--------------|------------------|
 |
 | E E   Q     E S S Q      E  E     Q     E S S Q
E|-9---------|-4-4--------|-4------------|-4-4----------|------------------|
B|-----------|------------|--------------|--------------|------------------|
G|-----------|------------|--------------|--------------|------------------|
D|-----------|------------|--------------|--------------|------------------|
A|-----------|------------|--------------|--------------|------------------|
E|-----------|------------|--------------|--------------|------------------|
 |
 |             E S S E  E   E  S  S  E E   E S S E  E
E|-----------|------------|--------------|--------------|------------------|
B|-----------|------------|--------------|--------------|------------------|
G|-----------|------------|--------------|--------------|------------------|
D|-----------|---1-1-1----|----2--2--2---|---1-1-1------|------------------|
A|-----------|---3-3-3----|----4--4--4---|---3-3-3------|------------------|
E|-----------|---4-4-4----|----0--0--0---|---4-4-4------|------------------|
 |
 | E S S E E   E E   E  E                  E E   E  E
E|-----------|------------|--------------|--------------|------------------|
B|-----------|------------|--------------|--------------|------------------|
G|-----------|------------|--------------|--------------|------------------|
D|-----------|------------|--------------|--------------|------------------|
A|---4-4-4-4-|------------|--------------|--------------|------------------|
E|-----------|-4--------4-|--------------|-4--------4---|------------------|


   E  S S  E  S  S   E  S S  E  E   E  S  S  E  E   E  S  S  Q
E|-12-9-15-16-11-11|-12-9-11-12-9-|-13-13-14-16-9-|-17-17-16-14--|
B|-----------------|--------------|---------------|--------------|
G|-9--6----13-8----|-9--6----9--6-|-10-10-11-13-6-|-14-14-13-11--|
D|-----------------|--------------|---------------|--------------|
A|-----------------|--------------|---------------|--------------|
E|-----------------|--------------|---------------|--------------|
 |
 |                                  E  E     Q      E  E     Q
E|-----------------|--------------|-9-------------|-9------------|
B|-----------------|--------------|---------------|--------------|
G|-----------------|--------------|---------------|--------------|
D|-----------------|--------------|---------------|--------------|
A|-----------------|--------------|---------------|--------------|
E|-----------------|--------------|---------------|--------------|
 |
 |                                  E  S  S  E  E   E  S  S  E E
E|-----------------|--------------|---------------|--------------|
B|-----------------|--------------|---------------|--------------|
G|-----------------|--------------|---------------|--------------|
D|-----------------|--------------|---------------|--------------|
A|-----------------|--------------|----4--4--4----|----4--4--4---|
E|-----------------|--------------|----4--4--4----|----2--2--5---|
 |
 |
E|-----------------|--------------|---------------|--------------|
B|-----------------|--------------|---------------|--------------|
G|-----------------|--------------|---------------|--------------|
D|-----------------|--------------|---------------|--------------|
A|-----------------|--------------|---------------|--------------|
E|-----------------|--------------|---------------|--------------|


   E  S  S  E  E   E E E E   E E  E E   E E  E E   E  E    E  E   E  E    E  E
E|-13-13-14-16-9-|-9-6-9-6-|-9-17-9-17|-9-17-9-17|-12-9----9--9-|-12-9----9--9-|
B|---------------|---------|----------|----------|--------------|--------------|
G|-10-10-11-13-6-|---------|---14---14|---14---14|--------------|--------------|
D|---------------|---------|----------|----------|--------------|--------------|
A|---------------|---------|----------|----------|--------------|--------------|
E|---------------|---------|----------|----------|--------------|--------------|
 |
 | E  E     Q                                      E  E    E  E   E  E    E  E
E|-9-------------|---------|----------|----------|----17---17-17|----17---17-17|
B|---------------|---------|----------|----------|--------------|--------------|
G|---------------|---------|----------|----------|--------------|--------------|
D|---------------|---------|----------|----------|--------------|--------------|
A|---------------|---------|----------|----------|--------------|--------------|
E|---------------|---------|----------|----------|--------------|--------------|
 |
 | E  S  S  E  E                                   E  S  S E  E   E  S  S E  E
E|---------------|---------|----------|----------|--------------|--------------|
B|---------------|---------|----------|----------|--------------|--------------|
G|---------------|---------|----------|----------|--------------|--------------|
D|---------------|---------|----------|----------|----2--2-2--2-|----2--2-2--2-|
A|----4--4--4----|---------|----------|----------|----0--0-0--0-|----0--0-0--0-|
E|----4--4--4----|---------|----------|----------|----0--0-0--0-|----0--0-0--0-|
 |
 |
E|---------------|---------|----------|----------|--------------|--------------|
B|---------------|---------|----------|----------|--------------|--------------|
G|---------------|---------|----------|----------|--------------|--------------|
D|---------------|---------|----------|----------|--------------|--------------|
A|---------------|---------|----------|----------|--------------|--------------|
E|---------------|---------|----------|----------|--------------|--------------|


   S  S  S  S  E  E   E  E    Q      E  E    E  E   E  E    E  E
E|-7--17-16-14-12-10|----10---12---|-12-9----9--9-|-12-9----9--9-|
B|------------------|--------------|--------------|--------------|
G|----14-13-11-9--7-|----7----9----|--------------|--------------|
D|------------------|--------------|--------------|--------------|
A|------------------|--------------|--------------|--------------|
E|------------------|--------------|--------------|--------------|
 |
 | S  S  S  S  E  E   E  E    Q      E  E    E  E   E  E    E  E
E|-16-14-12-10-9--7-|-5--7----9----|----17---17-17|----17---17-17|
B|------------------|--------------|--------------|--------------|
G|------------------|--------------|--------------|--------------|
D|------------------|--------------|--------------|--------------|
A|------------------|--------------|--------------|--------------|
E|------------------|--------------|--------------|--------------|
 |
 | E     E     E  E   E  E    E  E   E  S  S E  E   E  S  S E  E
E|------------------|--------------|--------------|--------------|
B|------------------|--------------|--------------|--------------|
G|------------------|--------------|--------------|--------------|
D|-------2-----2--2-|-2--2----2----|----2--2-2--2-|----2--2-2--2-|
A|-------0-----0--0-|--------------|----0--0-0--0-|----0--0-0--0-|
E|-------0-----0--0-|--------------|----0--0-0--0-|----0--0-0--0-|
 |
 |                    S SS  S E  E
E|------------------|--------------|--------------|--------------|
B|------------------|--------------|--------------|--------------|
G|------------------|--------------|--------------|--------------|
D|------------------|--------------|--------------|--------------|
A|------------------|-2-0----------|--------------|--------------|
E|------------------|----4--2-0--0-|--------------|--------------|


   S  S  S  S  E  E             S  S  E  E  S  S   S  S E  E  S  S
E|-7--17-16-14-12-13|---------|-17+17-14-14-14-16|-17-7-16-16-16-16|
B|------------------|---------|-21---------------|-----------------|
G|----14-13-11-9--10|---------|----14-11-11-11---|-16+--13-13-13---|
D|------------------|---------|------------------|-----------------|
A|------------------|---------|------------------|-----------------|
E|------------------|---------|------------------|-----------------|
 |                              14
 |
 | S  S  S  S  E  E   E. SQ     E     E  E  E      E    E  E  E
E|-16-14-12-10-9--7-|-5-------|-------5--5--5----|------7--7--7----|
B|------------------|---------|------------------|-----------------|
G|------------------|---------|------------------|-----------------|
D|------------------|---------|------------------|-----------------|
A|------------------|---------|------------------|-----------------|
E|------------------|---------|------------------|-----------------|
 |
 | E     E     E  E   E E E E   E     E  E  E      E    E  E  E
E|------------------|---------|------------------|-----------------|
B|------------------|---------|------------------|-----------------|
G|------------------|---------|------------------|-----------------|
D|-------2-----2----|---------|------------------|------2--2-------|
A|-------0-----0--4-|---------|-------4--4-------|------2--2-------|
E|-------0-----0--4-|-2---2---|-------2--2-------|------0--0-------|
 |
 |
E|------------------|---------|------------------|-----------------|
B|------------------|---------|------------------|-----------------|
G|------------------|---------|------------------|-----------------|
D|------------------|---------|------------------|-----------------|
A|------------------|---------|------------------|-----------------|
E|------------------|---------|------------------|-----------------|


   S  S S  S  S  S S  S   E S  S  E E   E  E  E  E   E  E  E  E
E|-17-7-16-16-17-7-16-17|-9-17-17-9-17|-12-9--9--9-|-12-9--9--9-|
B|----------------------|-------------|------------|------------|
G|-16+--13----16+--13---|---14------14|------------|------------|
D|----------------------|-------------|------------|------------|
A|----------------------|-------------|------------|------------|
E|----------------------|-------------|------------|------------|
 |
 | E    E     E    E      E E     E E   E  E  E  E   E  E  E  E
E|------7----------7----|---9-------9-|----17-17-17|----17-17-17|
B|----------------------|-------------|------------|------------|
G|----------------------|-------------|------------|------------|
D|----------------------|-------------|------------|------------|
A|----------------------|-------------|------------|------------|
E|----------------------|-------------|------------|------------|
 |
 | E    E     E    E      E E     E E   E  E  E  E   E  E  E  E
E|----------------------|-------------|------------|------------|
B|----------------------|-------------|------------|------------|
G|----------------------|-------------|------------|------------|
D|------2-----2---------|---2-----2---|----2--2--2-|----2--2--2-|
A|------2-----2---------|---0-----0---|----0--0--0-|----0--0--0-|
E|------0-----0---------|---0-----0---|----0--0--0-|----0--0--0-|
 |
 |
E|----------------------|-------------|------------|------------|
B|----------------------|-------------|------------|------------|
G|----------------------|-------------|------------|------------|
D|----------------------|-------------|------------|------------|
A|----------------------|-------------|------------|------------|
E|----------------------|-------------|------------|------------|


   S  S  S  S  E  E   E  S S E E   E S S E  E   E  S  S  Q     E S S E  E
E|-7--17-16-14-12-16|-17-9-9-9-9-|-8-8-9-11-4-|-12-12-11-9---|-8-8-9-11-4-|
B|------------------|------------|------------|--------------|------------|
G|----14-13-11-9--13|-14-6-6-6-6-|-5-5-6-8----|-9--9--8--6---|-5-5-6-8----|
D|------------------|------------|----------6-|--------------|----------6-|
A|------------------|------------|------------|--------------|------------|
E|------------------|------------|------------|--------------|------------|
 |
 | S  S  S  S  E  E   E  E   Q     E S S Q      E  E     Q     E S S Q
E|-16-14-12-10-9--10|-9----------|-4-4--------|-4------------|-4-4--------|
B|----------------12|------------|------------|--------------|------------|
G|------------------|------------|------------|--------------|------------|
D|------------------|------------|------------|--------------|------------|
A|------------------|------------|------------|--------------|------------|
E|------------------|------------|------------|--------------|------------|
 |
 | E     E     E  E                E S S E  E   E  S  S  E E   E S S E  E
E|------------------|------------|------------|--------------|------------|
B|------------------|------------|------------|--------------|------------|
G|------------------|------------|------------|--------------|------------|
D|-------2-----2----|------------|---1-1-1--1-|----2--2--2-2-|---1-1-1--1-|
A|-------0-----0----|------------|---3-3-3--3-|--------------|---3-3-3--3-|
E|-------0-----0----|------------|---4-4-4--4-|----0--0--0-0-|---4-4-4--4-|
 |
 | Q           E  E   E  S S E E
E|------------------|------------|------------|--------------|------------|
B|------------------|------------|------------|--------------|------------|
G|------------------|------------|------------|--------------|------------|
D|------------------|------------|------------|--------------|------------|
A|------------------|----4-4-4-4-|------------|--------------|------------|
E|----------------0-|------------|------------|--------------|------------|


   E  E  E  E   E  E E  E   E  E E  E   E  S  S  E  E   E  S  S  Q
E|-16-11-16-11|-12-9-16-11|-12-9-12-9-|-13-13-14-16-9-|-17-17-16-14---|
B|-20----20---|-16---20---|-16---16---|---------------|---------------|
G|----8-----8-|----6----8-|----6----6-|-10-10-11-13-6-|-14-14-13-11---|
D|-18----18---|-14---18---|-14---14---|---------------|---------------|
A|------------|-----------|-----------|---------------|---------------|
E|------------|-----------|-----------|---------------|---------------|
 |
 |                                      E  E     Q      E  E     Q
E|------------|-----------|-----------|-9-------------|-9-------------|
B|------------|-----------|-----------|---------------|---------------|
G|------------|-----------|-----------|---------------|---------------|
D|------------|-----------|-----------|---------------|---------------|
A|------------|-----------|-----------|---------------|---------------|
E|------------|-----------|-----------|---------------|---------------|
 |
 |                                      E  S  S  E  E   E  S  S  E  E
E|------------|-----------|-----------|---------------|---------------|
B|------------|-----------|-----------|---------------|---------------|
G|------------|-----------|-----------|---------------|---------------|
D|------------|-----------|-----------|---------------|---------------|
A|------------|-----------|-----------|----4--4--4--4-|----4--4--4--4-|
E|------------|-----------|-----------|----7--7--7--7-|----5--5--5--5-|
 |
 |
E|------------|-----------|-----------|---------------|---------------|
B|------------|-----------|-----------|---------------|---------------|
G|------------|-----------|-----------|---------------|---------------|
D|------------|-----------|-----------|---------------|---------------|
A|------------|-----------|-----------|---------------|---------------|
E|------------|-----------|-----------|---------------|---------------|


   E  S  S  E  E   E E E E   E E  E E   E E  E E   E  E  E  E   E  E  E  E
E|-13-13-14-16-9-|-9-6-9-6-|-9-17-9-17|-9-17-9-17|-12-9--9--9-|-12-9--9--9-|
B|---------------|---------|----------|----------|------------|------------|
G|-10-10-11-13-6-|---------|---14---14|---14---14|------------|------------|
D|---------------|---------|----------|----------|------------|------------|
A|---------------|---------|----------|----------|------------|------------|
E|---------------|---------|----------|----------|------------|------------|
 |
 | E  E     Q                                      E  E  E  E   E  E  E  E
E|-9-------------|---------|----------|----------|----17-17-17|----17-17-17|
B|---------------|---------|----------|----------|------------|------------|
G|---------------|---------|----------|----------|------------|------------|
D|---------------|---------|----------|----------|------------|------------|
A|---------------|---------|----------|----------|------------|------------|
E|---------------|---------|----------|----------|------------|------------|
 |
 | E  S  S  E  E                                   E  E  E  E   E  E  E  E
E|---------------|---------|----------|----------|------------|------------|
B|---------------|---------|----------|----------|------------|------------|
G|---------------|---------|----------|----------|------------|------------|
D|---------------|---------|----------|----------|----2--2--2-|----2--2--2-|
A|----4--4--4--4-|---------|----------|----------|----0--0--0-|----0--0--0-|
E|----4--4--4--4-|---------|----------|----------|----0--0--0-|----0--0--0-|
 |
 |
E|---------------|---------|----------|----------|------------|------------|
B|---------------|---------|----------|----------|------------|------------|
G|---------------|---------|----------|----------|------------|------------|
D|---------------|---------|----------|----------|------------|------------|
A|---------------|---------|----------|----------|------------|------------|
E|---------------|---------|----------|----------|------------|------------|


   S  S  S  S  E  E   E E  Q     E  E  E  E   E  E  E  E   S  S  S  S  E  E
E|-7--17-16-14-12-10|-9-10-12--|-12-9--9--9-|-12-9--9--9-|-7--17-16-14-12-13|
B|------------------|----------|------------|------------|------------------|
G|----14-13-11-9--7-|-6-7--9---|------------|------------|----14-13-11-9--10|
D|------------------|----------|------------|------------|------------------|
A|------------------|----------|------------|------------|------------------|
E|------------------|----------|------------|------------|------------------|
 |
 | S  S  S  S  E  E   E E  Q     E  E  E  E   E  E  E  E   S  S  S  S  E  E
E|-16-14-12-10-9--7-|-5-7--9---|----17-17-17|----17-17-17|-16-14-12-10-9--7-|
B|------------------|----------|------------|------------|------------------|
G|------------------|----------|------------|------------|------------------|
D|------------------|----------|------------|------------|------------------|
A|------------------|----------|------------|------------|------------------|
E|------------------|----------|------------|------------|------------------|
 |
 | E     E     E  E   E E  E E   E  E  E  E   E  E  E  E   E     E     E  E
E|------------------|----------|------------|------------|------------------|
B|------------------|----------|------------|------------|------------------|
G|------------------|----------|------------|------------|------------------|
D|-------2-----2----|---2--2---|----2--2--2-|----2--2--2-|-------2-----2----|
A|-------0-----0----|---0--0---|----0--0--0-|----0--0--0-|-------0-----0--4-|
E|-------0-----0----|---0--0---|----0--0--0-|----0--0--0-|-------0-----0--4-|
 |
 | Q           E  E   E E  E E
E|------------------|----------|------------|------------|------------------|
B|------------------|----------|------------|------------|------------------|
G|------------------|----------|------------|------------|------------------|
D|------------------|----------|------------|------------|------------------|
A|------------------|-0--------|------------|------------|------------------|
E|----------------0-|--------0-|------------|------------|------------------|


   E. SQ     S  S  E  E  E   S  S E  E  E   S  S E  S  S E   S  S E  S  S E
E|-14------|-17+17-14-14-14|-17-7-16-16-16|-17-7-16-17-7-16|-17-9-17-17-9-17|
B|---------|-21------------|-21-----------|-21------21-----|-14+-----14+----|
G|-11------|----14-11-11-11|------13-13-13|------13------13|------14------14|
D|---------|---------------|-21+----------|-21+-----21+----|----------------|
A|---------|---------------|--------------|----------------|----------------|
E|---------|---------------|--------------|----------------|----------------|
 |           14
 |
 | E. SQ     E     E  E  E   E    E  E  E   E    E  E    E   E    E  E    E
E|-5-------|-------5--5--5-|------7--7--7-|------7-------7-|------9-------9-|
B|---------|---------------|--------------|----------------|----------------|
G|---------|---------------|--------------|----------------|----------------|
D|---------|---------------|--------------|----------------|----------------|
A|---------|---------------|--------------|----------------|----------------|
E|---------|---------------|--------------|----------------|----------------|
 |
 | E E E E   E     E  E  E   E    E  E  E   E    E  E    E   E    E  E    E
E|---------|---------------|--------------|----------------|----------------|
B|---------|---------------|--------------|----------------|----------------|
G|---------|---------------|--------------|----------------|----------------|
D|---------|---------------|------2--2--2-|------2--2------|------2--2------|
A|---4-4-4-|-------4--4--4-|------2--2--2-|------2--2------|------0--0------|
E|---2-2-2-|-------2--2--2-|------0--0--0-|------0--0------|------0--0------|
 |
 |           E     E  Q      E    E  Q      E    E  E    E
E|---------|---------------|--------------|----------------|----------------|
B|---------|---------------|--------------|----------------|----------------|
G|---------|---------------|--------------|----------------|----------------|
D|---------|---------------|--------------|----------------|----------------|
A|---------|---------------|--------------|----------------|----------------|
E|---------|-2-------------|-0------------|-0------------0-|----------------|


   E  E  E  E   E  E  E  E   S  S  S  S  E  E   E.  S E SS   E  E  E  S  S
E|-12-9--9--9-|-12-9--9--9-|-7--17-16-14-12-16|-17-------14|-17-14-14-14-16|
B|------------|------------|------------------|------------|-21------------|
G|------------|------------|----14-13-11-9--13|-14---------|----11-11-11---|
D|------------|------------|------------------|------------|-19------------|
A|------------|------------|------------------|------------|---------------|
E|------------|------------|------------------|------------|---------------|
 |
 | E  E  E  E   E  E  E  E   S  S  S  S  E  E   E.  S Q      E  E  E  E
E|----17-17-17|----17-17-17|-16-14-12-10-9--10|-9----------|----5--5--5----|
B|------------|------------|------------------|------------|---------------|
G|------------|------------|------------------|------------|---------------|
D|------------|------------|------------------|------------|---------------|
A|------------|------------|------------------|------------|---------------|
E|------------|------------|------------------|------------|---------------|
 |
 | E  E  E  E   E  E  E  E   E     E     E  E   E S S E E    E  E  E  E
E|------------|------------|------------------|------------|---------------|
B|------------|------------|------------------|------------|---------------|
G|------------|------------|------------------|------------|---------------|
D|----2--2--2-|----2--2--2-|-------2-----2--2-|---2-2-2-2--|----4--4-------|
A|----0--0--0-|----0--0--0-|-------0-----0--2-|---4-4-4-4--|----4--4-------|
E|----0--0--0-|----0--0--0-|-------0-----0--0-|---5-5-5-5--|----2--2-------|
 |
 |
E|------------|------------|------------------|------------|---------------|
B|------------|------------|------------------|------------|---------------|
G|------------|------------|------------------|------------|---------------|
D|------------|------------|------------------|------------|---------------|
A|------------|------------|------------------|------------|---------------|
E|------------|------------|------------------|------------|---------------|


   S SE  E  S  S   S SS  S  S  S S  S   E S  S  E E   E  E  E  E   E  E  E  E
E|-17-16-16-16-16|-17-16-16-17-7-16-17|-9-17-17-9-17|-12-9--9--9-|-12-9--9--9-|
B|---------------|--------------------|-------------|------------|------------|
G|-16-13-13-13---|-16-13----16+--13---|---14------14|------------|------------|
D|---------------|--------------------|-------------|------------|------------|
A|---------------|--------------------|-------------|------------|------------|
E|---------------|--------------------|-------------|------------|------------|
 |
 | E  E  E  E      E  E     E    E      E E     E E   E  E  E  E   E  E  E  E
E|----7--7--7----|----7----------7----|---9-------9-|----17-17-17|----17-17-17|
B|---------------|--------------------|-------------|------------|------------|
G|---------------|--------------------|-------------|------------|------------|
D|---------------|--------------------|-------------|------------|------------|
A|---------------|--------------------|-------------|------------|------------|
E|---------------|--------------------|-------------|------------|------------|
 |
 | E  E  E  E      E  E     E    E      E E     E E   E  E  E  E   E  E  E  E
E|---------------|--------------------|-------------|------------|------------|
B|---------------|--------------------|-------------|------------|------------|
G|---------------|--------------------|-------------|------------|------------|
D|----2--2-------|----2-----2---------|---2-----2---|----2--2--2-|----2--2--2-|
A|----2--2-------|----2-----2---------|---0-----0---|----0--0--0-|----0--0--0-|
E|----0--0-------|----0-----0---------|---0-----0---|----0--0--0-|----0--0--0-|
 |
 |                                      Q       E E
E|---------------|--------------------|-------------|------------|------------|
B|---------------|--------------------|-------------|------------|------------|
G|---------------|--------------------|-------------|------------|------------|
D|---------------|--------------------|-------------|------------|------------|
A|---------------|--------------------|-------------|------------|------------|
E|---------------|--------------------|-----------0-|------------|------------|


   S  S  S  S  E  E   E E  E  E   E  E  E  E   E  E  E  E   E  E  E  E
E|-7--17-16-14-12-13|---15-16-16|-6--6--7--10|-7--16-17-9-|-6--6--7--10|
B|------------------|-----------|------------|------------|------------|
G|----14-13-11-9--10|---12-13-13|------------|----13-14---|------------|
D|------------------|-----------|------------|------------|------------|
A|------------------|-----------|------------|------------|------------|
E|------------------|-----------|------------|------------|------------|
 |
 | S  S  S  S  E  E   E E  E  E   E  E  E  E   E  E  E  E   E  E  E  E
E|-16-14-12-10-9--7-|-5-6--7--13|-14-14-14---|-16----9----|-14-14-14---|
B|------------------|-----------|------------|-15---------|------------|
G|------------------|-----------|------------|------------|------------|
D|------------------|-----------|------------|------------|------------|
A|------------------|-----------|------------|------------|------------|
E|------------------|-----------|------------|------------|------------|
 |
 | E     E     E  E
E|------------------|-----------|------------|------------|------------|
B|------------------|-----------|------------|------------|------------|
G|------------------|-----------|------------|------------|------------|
D|------------------|-----------|------------|------------|------------|
A|-------0-----0----|-----------|------------|------------|------------|
E|-------0-----0--4-|-----------|------------|------------|------------|
 |
 | Q           E  E   E E  Q      S SE  Q      E  E  Q      S SE  Q
E|------------------|-----------|------------|------------|------------|
B|------------------|-----------|------------|------------|------------|
G|------------------|-----------|------------|------------|------------|
D|------------------|-----------|------------|------------|------------|
A|----------------4-|-----------|------------|------------|------------|
E|------------------|-2---------|-2+2--------|-0----------|-2+2--------|
                                  ?                         ?

   E  E  E  E   E  E  E  E   E  E  E  E   E  E  E  E   E  E  E  E   S SE E E
E|-7--16-17-9-|-12-9--9--9-|-12-9--9--9-|-12-9--12-9-|-12-9--12-9-|-9----5---|
B|------------|------------|------------|------------|------------|----------|
G|----13-14---|------------|------------|------------|------------|--------2+|
D|------------|------------|------------|------------|------------|------7+--|
A|------------|------------|------------|------------|------------|----------|
E|------------|------------|------------|------------|------------|----------|
 |
 | E  E  E  E   E  E  E  E   E  E  E  E   E  E  E  E   E  E  E  E   E  E E E
E|-16----9----|----17-17-17|----17-17-17|----17----17|----17----17|-17---0---|
B|-15---------|------------|------------|------------|------------|------2---|
G|------------|------------|------------|------------|------------|----------|
D|------------|------------|------------|------------|------------|----------|
A|------------|------------|------------|------------|------------|----------|
E|------------|------------|------------|------------|------------|----------|
 |
 |
E|------------|------------|------------|------------|------------|----------|
B|------------|------------|------------|------------|------------|----------|
G|------------|------------|------------|------------|------------|----------|
D|------------|------------|------------|------------|------------|----------|
A|------------|------------|------------|------------|------------|----------|
E|------------|------------|------------|------------|------------|----------|
 |
 | E  E  Q                                                          Q    E E
E|------------|------------|------------|------------|------------|----------|
B|------------|------------|------------|------------|------------|----------|
G|------------|------------|------------|------------|------------|----------|
D|------------|------------|------------|------------|------------|----------|
A|------------|------------|------------|------------|------------|------0---|
E|-0----------|------------|------------|------------|------------|----------|


   S E. E E   S SE Q
E|------9---|----------||
B|----------|----------||
G|-2+2+-6-2+|-2+2------||
D|------7+--|----------||
A|-0--------|-0--------||
E|----------|----------||
 |
 | Q    E E
E|------5---|----------||
B|----------|----------||
G|----------|----------||
D|------7---|----------||
A|----------|----------||
E|----------|----------||
 |
 |
E|----------|----------||
B|----------|----------||
G|----------|----------||
D|----------|----------||
A|----------|----------||
E|----------|----------||
 |
 | Q    E E
E|----------|----------||
B|----------|----------||
G|----------|----------||
D|------2---|----------||
A|----------|----------||
E|------0---|----------||



What do all the symbols mean?
-----------------------------

W - whole note (semibreve)
H - half note (minim)
Q - quarter note (crotchet)
E - 8th note (quaver)
S - 16th note (semiquaver)
T - 32nd note (demisemi quaver)
X - 64th note (hemidemisemi quaver)
? - Fret number not defined (note out of range)

If a dot appears after one of the above then it means that the note is 1.5
times as long, e.g. Q. is 3 8th notes long. Two dots means 1.75 times long.

If a '+' sign appears after a note then that note is tied to (held on to) the
next note.

 ______
|1.    | - play bar/s under this sign first time only in repeats

|2.    | - play bar/s under this sign second time only in repeats

|1.3.  | - play bar/s under this sign first and third time only in repeats

||
||*
||*      - Repeat back to this sign
||

 ||
*||
*||      - Repeat from this sign
 ||


|-3-|    - Triplet


Tap to rate this tab
# A B C D E F G H I J K L M N O P Q R S T U V W X Y Z