Song name
# A B C D E F G H I J K L M N O P Q R S T U V W X Y Z

Luigi Rinaldo Legnani - Op 20 Caprice No 7 In A Prestissimo tab

Prestissimo     Time Signature 3/8

-*-*-*-*-*-*-*-*-*-*-*-*-*-*-*-*-*-*-*-*-*-*-*-*-*-*-*-*-*-*-*-*-*-*-*-*-*-*-*

section A: (A major)

|-------|-------------7-|-9-9---|--------7-9-10-|-12-12-12-|
|-------|------7-9-10---|-----9-|-----10--------|----------|
|*----9-|---------------|-------|---------------|--------9-|
|*------|---------------|-------|---------------|-------11-|
|-------|--0------------|-------|--0------------|----------|
|-------|---------------|-------|---------------|----------|

|-12-11-11-|-11-10-10-|-10-9-8-|-7----|-----------7-|-9-9----|
|----------|----------|--------|------|----7-9-10---|-----9--|
|--9--8--8-|--8--7--7-|--7-6-5-|-4--9-|-------------|--------|
|-11-10-10-|-10--9--9-|--9-8-7-|-6----|-------------|--------|
|----------|----------|--------|------|-------------|--------|
|----------|----------|--------|------|-------------|--------|

|------7-9-10-|-12-12-12-|-13--12--11-|-12--12--12-|-10-9-8-|
|-9-10--------|----------|-10--10--10-|--9---9---9-|--7-7-7-|
|-------------|--------9-|-10--10--10-|--9---9---9-|--7-7-7-|
|-------------|----------|------------|------------|--------|
|-------------|----------|------------|------------|--------|
|-------------|----------|------------|------------|--------|

|-9-9-9-|-7-9-10-|---5-5-|---4-4-|-5----|
|-6-6-6-|-7------|---5-5-|---3-3-|-5----|
|-6-6-6-|-7------|---6-6-|---4-4-|-6---*|
|-------|-0------|-------|-------|-7---*|
|-------|--------|-------|-------|-0----|
|-------|--------|-0-----|-0-----|------|

-*-*-*-*-*-*-*-*-*-*-*-*-*-*-*-*-*-*-*-*-*-*-*-*-*-*-*-*-*-*-*-*-*-*-*-*-*-*-*

section B: (A major)

|-------|-10-7---0-----|-------------|-----------0-|
|-------|------9---3-0-|-------------|---------2---|
|*----9-|--------------|-1-----------|-------2-----|
|*------|--------------|---2-0-------|-----2-------|
|-------|--------------|-------2-----|-0-4---------|
|-------|--0-----------|---------4-0-|-------------|

|----9-12-9----9-|-10-7---0----0-|---0---0---0-|-----5----4-----|-5----|
|-10--------10---|------9------9-|---9---9---9-|-----5----3-----|-2----|
|----------------|----------10---|-9---8---7---|-----6----4-----|-2---*|
|----------------|---------------|-------------|----------------|-----*|
|----------------|---------------|-------------|-0--------------|-0----|
|----------------|--0------------|-------------|----------0-----|------|

-*-*-*-*-*-*-*-*-*-*-*-*-*-*-*-*-*-*-*-*-*-*-*-*-*-*-*-*-*-*-*-*-*-*-*-*-*-*-*

section C: (D major)

|-----10-|-10--10-|-10--10-|-10-9-7-|-5----|--------|-----2-|-2-0---|
|--------|--------|--------|--------|----3-|-3-2--5-|-5-3---|-----3-|
|*-----7-|--7---7-|--7---7-|--7-6-4-|-2--2-|-2-2--2-|-2-2-2-|-2-2-1-|
|*-------|--------|--------|--------|----4-|-4-5--5-|-5-4-0-|-0-----|
|--------|--------|--------|--------|-0----|--------|-------|---4-2-|
|-----10-|-10--10-|-10--10-|-10-9-7-|------|--------|-------|-------|

|----10-|-10--10-|-10--10-|-10-9-7-|-5--5-|-6-5-4---|
|-2-----|--------|--------|--------|------|-3-3-3---|
|-2---7-|--7---7-|--7---7-|--7-6-4-|-2--2-|-3-3-3---|
|-------|--------|--------|--------|------|---------|
|-0-----|--------|--------|--------|-0----|---------|
|----10-|-10--10-|-10--10-|-10-9-7-|------|---------|


|-5-5-5-|-3-2-1-|-2-2-2-|-0-2-3-|-------|-------|------|
|-2-2-2-|-0-0-0-|-2-2-2-|-0-----|---3-3-|---2-2-|-3----|
|-2-2-2-|-0-0-0-|-3-3-3-|-0-----|---2-2-|---0-0-|-2---*|
|-------|-------|-------|-------|---4-4-|---2-2-|-4---*|
|-------|-------|-------|-------|-0-----|-0-----|-5----|
|-------|-------|-------|-3-----|-------|-------|------|

-*-*-*-*-*-*-*-*-*-*-*-*-*-*-*-*-*-*-*-*-*-*-*-*-*-*-*-*-*-*-*-*-*-*-*-*-*-*-*

section D: (D major)

|-----2-|-------2-0-|--------0---|-----------|---------2-5---|-------2-0----|
|-------|-----2-----|----------3-|-------3-2-|-------3-------|-----2--------|
|*------|---0-------|------2-----|-----0-----|-----2---------|---0----------|
|*------|-0---------|---4--------|---2-------|---4-----------|-0------------|
|-------|-----------|-5----------|-0---------|-5-------------|--------------|
|-------|-----------|------------|-----------|---------------|--------------|

|-------0---|-------|------|
|---------3-|---2-2-|-3----|
|-----2-----|---0-0-|-2---*|
|---4-------|---2-2-|-4---*|
|-5---------|-0-----|-5----|
|-----------|-------|------|

return to the start and play Section A once followed by Section B once
Tap to rate this tab
# A B C D E F G H I J K L M N O P Q R S T U V W X Y Z