Song name
# A B C D E F G H I J K L M N O P Q R S T U V W X Y Z

Luigi Rinaldo Legnani - Op 20 Caprice No 2 In Em Allegro tab

E||--------------|-----7--8--6--|--7--6--7--8--7-----|-----7--8--6--|
B||-----0--0--0--|--0--0--0--0--|--------0-----0--0--|--0--0--0--0--|
G||-----0--0--0--|--0--0--0--0--|--------0-----0--0--|--0--0--0--0--|
D||--------------|--------------|--------------------|--------------|
A||--------------|--------------|--------------------|--------------|
E||--0-----------|--------------|--0-----------------|--------------|


--7--6--7--8--7-----|-----15-----11--|-----12-----6--|--7--2--3--0--|
--------0-----0--0--|--0--0---0--0---|-----0---0--0--|--0--0--0--0--|
--------0-----0--0--|--0--0---0--0---|-----0---0--0--|--0--0--0--0--|
--------------------|----------------|---------------|--------------|
--------------------|----------------|---------------|--------------|
--0-----------------|----------------|--0------------|--------------|


--------------|--------------|------------------|------------------|
--4-----------|-----0--0--0--|----------1-------|----------0-------|
-----2--2--2--|--2--2--2--2--|----2---2---2---2-|----2---2---2---2-|
-----4--4--4--|--4--4--4--4--|------4-------4---|------4-------4---|
--------------|--------------|------------------|------------------|
--0-----------|--------------|--0---------------|--0---------------|


------------------|------------------|------------------|-------------------|
----------2-------|----------0-------|----------4-------|----------0--------|
----2---2---2---2-|----2---2---2---2-|----2---2---2---2-|----2---2---2---2--|
------4-------4---|------4-------4---|------4-------4---|------4-------4----|
------------------|------------------|------------------|-------------------|
--0---------------|--0---------------|--0---------------|--0----------------|


--0-----------|-----7--8--6--|--7--6--7--8--7-----|-----7--8--6--|
-----0--0--0--|--0--0--0--0--|--------0-----0--0--|--0--0--0--0--|
-----0--0--0--|--0--0--0--0--|--------0-----0--0--|--0--0--0--0--|
--------------|--------------|--------------------|--------------|
--------------|--------------|--------------------|--------------|
--0-----------|--------------|--0-----------------|--------------|


--7--6--7--8--7-----|-----15-----11--|-----12-----6--|--7--2--3--0--|
--------0-----0--0--|--0--0---0--0---|-----0---0--0--|--0--0--0--0--|
--------0-----0--0--|--0--0---0--0---|-----0---0--0--|--0--0--0--0--|
--------------------|----------------|---------------|--------------|
--------------------|----------------|---------------|--------------|
--0-----------------|----------------|--0------------|--------------|


------------------|------------------|------------------|--0----------------|
--3---------------|------3---3---3---|--4---3---2---3---|------3---2---3----|
----2---2---2---2-|----2---2---2---2-|----2---2---2---2-|----2---2---2---2--|
------4---4---4---|--4---4---4---4---|------4---4---4---|------4---4---4----|
------------------|------------------|------------------|-------------------|
--2---------------|------------------|--2---------------|--2----------------|


----------------3-|-----2--0--------------|----------0-3-7-12-|-----0--------|
--0---------0-3---|-----------3--1--0-----|--------0----------|-----0-----4--|
----------0-------|--------------------2--|------0------------|-----0-----2--|
--------0---------|-----------------------|----2--------------|-----------4--|
------2-----------|--3--------------------|--2----------------|--2-----2-----|
----3-------------|-----------------------|-------------------|--------------|


--0-----------7---|------15-------12----|-------11---------8----|
----0---0---0---0-|----0----0---0----0--|-------10---------7----|
------0---0---0---|------0----0---0-----|----11----11----8---8--|
------------------|---------------------|-------10---------7----|
------------------|---------------------|-----------------------|
--0---------------|--0------------------|--0-----------0--------|


------5--------2----|--0-----------7---|------15-------12----|
------4--------1----|----0---0---0---0-|----0----0---0----0--|
----5---5----2---2--|------0---0---0---|------0----0---0-----|
------4--------1----|------------------|---------------------|
--------------------|------------------|---------------------|
--0--------0--------|--0---------------|--0------------------|


-------11---------8----|------5--------2----|--0--------|
-------10---------7----|------4--------1----|--0--------|
----11----11----8---8--|----5---5----2---2--|--0--------|
-------10---------7----|------4--------1----|-----------|
-----------------------|--------------------|-----------|
--0-----------0--------|--0--------0--------|--0--------|


--------------------------|-----0--3--0--|--------------------------|
--0--1--0--1--0--1--0--1--|--0-----------|--0--1--0--1--0--1--0--1--|
--2-----------2-----------|--0-----------|--2-----------2-----------|
--1-----------1-----------|--2-----------|--1-----------1-----------|
--------------------------|--------------|--------------------------|
--------------------------|--------------|--------------------------|


-----------|--------------------------|--------------|
--0--------|--------------------------|--------------|
--0--------|--2-----------2-----------|--0-----------|
--2--------|--1-----------1-----------|--2-----------|
-----------|--2--3--2--3--2--3--2--3--|--2-----------|
-----------|--------------------------|-----3--0--3--|


--------------------------|-----------|--0----3----||
--------------------------|-----------|--0----5----||
--2-----------2-----------|--0--------|--0----4----||
--1-----------1-----------|--2--------|------------||
--2--3--2--3--2--------2--|--2--------|------------||
-----------------3--0-----|--0--------|--0----0----||
Tap to rate this tab
# A B C D E F G H I J K L M N O P Q R S T U V W X Y Z