Luigi Seno - Mutual Feelings tab

Mutual Feelings - Luigi Seno
Played on 4th fret

LYRICS

VERSE I:
I 've been preparing for this day to come
So I could tell the world that I've got a crush on
Some girl I dream about each day and night
And now shes here with me and I just gotta tell her this

CHORUS:
I need you
If you could just be my girl and i can be your man
I'm begging for an answer
If we can be together
And I hope for mutual feelings of love

VERSE II:
I've tried so many times to get over you
But i just can't let go, I know that this love is true
I pray someday that you will feel the same
Same feeling that i feel that I would never change

(REPEAT CHORUS)

BRIDGE:
So lately, I've been holding on a secret but I never found the right place or time
To tell you that I really really like you and I'm hoping that there maybe just might
Be a day that your feelings will be, your feelings will be, your feelings will be
Mutual to mine girl.

(REPEAT CHORUS)

INTRO
E|-----0--|-----0--|--------0--|-----0--|-----0--|-----0--|--0-----|
B|--------|--------|--------0--|--------|-----0--|-----0--|--0-----|
G|--1-----|--2-----|-----------|--2-----|--1-----|--2-----|--2-----|
D|--2-----|--2-----|--2--------|--2-----|--2-----|--2-----|--4-----|
A|--------|--------|-----------|--------|--------|--------|--3-----|
E|--0-----|--2-----|----2/4----|--2-----|--0-----|--2-----|--------|


VERSE 1 & 2
E|--------|--------|--------|--------|--------|--------|--------|--------|
B|--------|--------|--------|--------|--------|--------|--------|--------|
G|--1-----|--2-----|--4-----|--2-----|--1-----|--2-----|--4-----|--2-----|
D|--2-----|--2-----|--4-----|--2-----|--2-----|--2-----|--4-----|--2-----|
A|--------|--------|--------|--------|--------|--------|--------|--------|
E|--0-----|--2-----|--4-----|--2-----|--0-----|--2-----|--4-----|--2-----|


E|--------|--------|--------|--------|--------|--------|--0-----|
B|--------|--------|--------|--------|--------|--------|--0-----|
G|--1-----|--2-----|--4-----|--2-----|--1-----|--2-----|--2-----|
D|--2-----|--2-----|--4-----|--2-----|--2-----|--2-----|--4-----|
A|--------|--------|--------|--------|--------|--------|--3-----|
E|--0-----|--2-----|--4-----|--2-----|--0-----|--2-----|--0-----|


CHORUS
E|--------|--------|--------|--------|---0----|
B|---4----|---0----|---4----|---3----|---0----|
G|---4----|---2----|---4----|---4----|---2/4--|
D|---2----|---2----|---2----|---3----|---2/4--|
A|---4----|--------|---4----|---4----|--------|
E|--------|---2----|--------|--------|---2/4--|
           I need u.. be my.. I can be ur man

E|--------|--------|--------|--------|--------|--------|
B|---0----|---0----|---0----|---0----|---0----|---2----|
G|---2----|---4----|---2----|---4----|---2----|---2----|
D|---2----|---4----|---2----|---4----|---2----|---1----|
A|--------|--------|--------|--------|--------|---2----|
E|---2----|---4----|---2----|---4----|---2----|--------|
  I'm begging...    If we can....     And I hope for mutual..

(Repeat Intro)
(Verse II)
(Repeats Chorus)

BRIDGE INTRO
E|--------|--------|--------| (2x)
B|--------|--------|---2----|
G|---1----|---2----|---2----|
D|---2----|---2----|---1----|
A|--------|--------|---2----|
E|---0----|---2----|--------|

BRIDGE
E|--------|--------|--------|--------| (2x)
B|--------|--------|---2----|--------|
G|---1----|---2----|---2----|---1----|
D|---2----|---2----|---1----|---2----|
A|--------|--------|---2----|--------|
E|---0----|---2----|--------|---0----|
  So lately..holdin....never.. 

E|--------|--------|--------|--------|--------|
B|---2----|---4----|---3----|---2----|---2----|
G|---1----|---4----|---3----|---2----|---2----|
D|---2----|---2----|---3----|---2----|---1----|
A|--------|---4----|---0----|---2----|---2----|
E|--------|--------|---3----|---2----|--------|
    day...  feelings..	        your feelings will be mutual to mine..
Tap to rate this tab
 
# A B C D E F G H I J K L M N O P Q R S T U V W X Y Z