Song name
# A B C D E F G H I J K L M N O P Q R S T U V W X Y Z

Luis Bacalov - Il Postino tab

I tried to tab this beautiful song but i'm not sure that it's 100% correct.
Have fun.

e |-----0---------|------------|--------------|---------|----2-------|--|
B |--2-----2---5--|------------|-----7-----5--|---------|--5---5--5--|--|
G |------------2--|----4--2--6-|---6---6---4--|---4---4-|---------2--|--|
D |------------2--|--2---------|-----------2--|-2---2---|---------4--|--|
A |---------------|------------|--------------|---------|------------|--|
E |------------5--|------------|-----------4--|---------|---------2--|--|

e |--------5-|---------------|-----------|-----------|-------------|-----|
B |--3-3-2h3-|--2--2---------|-----------|--------5--|-------------|-----|
G |----------|--2---------4--|--6-6-7-6--|--6-4-6p4--|--3--4--4-2--|-----|
D |----------|--2--2--4h6-7--|--------6--|-----------|--6--2-------|-----|
A |----------|---------------|--------5--|-----------|-----2-------|-----|
E |----------|--5------------|-----------|-----------|-----5-------|-----|

e |-------------|-----5--4-5--|--7--4-------|--------------|-------------|
B |-------------|--5--5-------|--7--5-------|--------------|-------------|
G |----4-2------|--6--2-------|--2--4-------|--------------|-------------|
D |--6-----6/7--|-------------|-----2--2----|--------------|-2-----------|
A |-------------|-------------|--2-------6--|--5--4--2-----|-------------|
E |-------------|-------------|-------------|--------5--4--|-2-----------|


e|----0----7---|------2----|----------2----|--2--------5--|--------------|--|
B|--2---2--7h5-|-5--2---2--|--5----5----5--|--5--5--3--2--|--2--3--3--5--|--|
G|---------2---|-----------|--4------------|--2-----------|--2-----------|--|
D|---------2---|-----------|--2------------|--------------|--4-----------|--|
A|-------------|-----------|---------------|--------------|--5-----------|--|
E|---------5---|-----------|--4------------|--3-----------|--------------|--|

e|-------------|-------------|---------------|---------------|-------------|--5----|
B|-3--2--2--2--|-2--3--2-----|---------------|---------------|--------3-2--|--2----|
G|----2--------|----------4--|--4--4---------|--4--2------2--|-----4--2----|--2----|
D|----2--2--2--|----------2--|--2--2---4--6--|---------6-----|--4--2-------|--2----|
A|-------------|----------2--|---------------|---------------|-------------|--4----|
E|----5--------|-------------|---------------|---------------|--5----------|--5----|
Tap to rate this tab
 
# A B C D E F G H I J K L M N O P Q R S T U V W X Y Z