Song name
# A B C D E F G H I J K L M N O P Q R S T U V W X Y Z

Luis Bacalov - Summertime Killer tab

Summertime Killer
Luis Bacalov

Part 1 (0:13 - 0:30;  0:38 - 0:53):
Guitar 1
------------------------------|
------------------------------|
-------0---------------(0)----|
-----4-------------(4)--------|
---2-----------(3)------------|
-0---------(0)----------------|
Guitar 2 : Em C


Part 2 (0:54 - 1:11):
Guitar 1: plays always Em
Guitar 2:
------------------------------|
------------------------------|
------------------------------|
-2-2-0-0-2----2-5--7-8-7------|
------------------------------|
------------------------------|


Part 3 (1:11 - 1:26):
Em Em
Em Em


Part 4 (1:27 - 1:53):
Guitar 1: Em
Guitar 2: Em C with wah-wah


Part 5 (1:54 - 2:07):
Guitar 1: Always Em
Guitar 2 Struming Em


Part 6 (2:08 - 2:41):
As Part 2


Part 7 (2:42 - 3:51):
Guitar 1 plays Em till the end
Guitar 2 plays ramdom wah-wah riffs on Em and sometimes the second part of the riff of 
part 2


Lots of Em...great song discovered on Kill Bill Vol 2 Soundtrack!
Hope the tab is good enough for everybody!
beranger80@hotmail.com
Tap to rate this tab
# A B C D E F G H I J K L M N O P Q R S T U V W X Y Z