Song name
# A B C D E F G H I J K L M N O P Q R S T U V W X Y Z

Luis Fonsi - Aunque Estes Con El tab

Esta cnacionse la kiero dedicar a una d mis mejores amigas... q no kiero perder su
amistad!!! E.P. tkm!!!

INTRO:

   D               G
E--2---2---2---2---3---3---3-----0-3-|
B--3---3---3---3---3---3---3---3-----|
G--2-2---2---2---2-0-0---0---0-------|
D--0---------------------------------| x2
A------------------------------------|
E------------------3-----------------|

D           G
  Que bonita estas,
D         G
  cada día mas,
D             G
  Tanto que decir...
             D             G
  Tanto que reír para no llorar.

A                     G
  Sé que puedo controlar mis pensamientos,
A                     C
  pero no consigo callar el sentimiento
          A
  que es libre como el viento...

Coro:

D
  No pretendo que lo dejes todo por mi amor,
Em
  no te digo que conmigo te va a ir mejor,
G
  Sólo pido que no ignores a tu corazón,
A
  es el único que siempre tiene la razón.


D
  He inventado mil razones para olvidarte,
Em
  He luchado con mis ganas para no llamarte,
G
  Mi promesa siempre ha sido ser un hombre fiel,
A
  Mi promesa es respetar tu piel...
     C             A
  y no dejaré de amarte,
                   D    Em
  Aunque estés con el...
                   G   A
  Aunque estés con el...

D        G
  Sobreviviré,
D               G
  Pensando en ti lo haré,
D                G                         D
  Quedan los recuerdos flotando entre los besos...
           G
  Anoche lo soñé.


A                     G
  Sé que puedo controlar mis pensamientos,
A                       C
  Pero es imposible callarme lo que siento,
         A
  Que me arde aquí muy dentro...

Coro:

D
  No pretendo que lo dejes todo por mi amor,
Em
  no te digo que conmigo te va a ir mejor,
G
  Sólo pido que no ignores a tu corazón,
A
  es el único que siempre tiene la razón.


D
  He inventado mil razones para olvidarte,
Em
  He luchado con mis ganas para no llamarte,
G
  Mi promesa siempre ha sido ser un hombre fiel,
A
  Mi promesa es respetar tu piel...
     C             A
  y no dejaré de amarte,
                   D
  Aunque estés con el...


Solo Guitarra:

  D                             Em
E-------------------------------------------------------------|
B-8--8-8P7-7--7-7P6--6-6--------8--8-8P7-7--7-7P6--6-6--------|
G------------------------7-7V---------------------------7-7V--|
D-------------------------------------------------------------|
A-------------------------------------------------------------|
E-------------------------------------------------------------|

 G                         A
-5--5-5--------------------5--5-5--------------------7-10VV---|
--------8--8-8P7-7-7P5-5V---------8-8-8P7-------7-10----------|
----------------------------------------------7---------------|
-------------------------------------------7h8----------------|
--------------------------------------------------------------|
--------------------------------------------------------------|

D
  He inventado mil razones para olvidarte,
Em
  He luchado con mis ganas para no llamarte,
G
  Mi promesa siempre ha sido ser un hombre fiel,
A
  Mi promesa es respetar tu piel...
     C             A
  y no dejare de amarte,
              D      Em
  Aunque estés con el...
                   G
  Aunque estés con el...

C  D
Tap to rate this tab
 
# A B C D E F G H I J K L M N O P Q R S T U V W X Y Z