Song name
# A B C D E F G H I J K L M N O P Q R S T U V W X Y Z

Luis Miguel - Sabor A Mi tab

-------------------------------------------------------------------------------
                             Sabor A Mi - Luis Miguel
-------------------------------------------------------------------------------
Tabbed by:srxshadow
E-mail: rocket3500@yahoo.com

Tuning: Standard

e|-----------------------1011---13------11--10------13--11--10--------13-11-13-|
B|-------------10--11-13------------------------13---------------13------------|
G|--12-12-12-------------------------------------------------------------------|
D|-----------------------------------------------------------------------------|
A|-----------------------------------------------------------------------------|
E|-----------------------------------------------------------------------------|

e|11--11h13r11--10--10----------------------------------------------------------------------------|
B|-----------------------13-13-11---13-----10--11--13-----10--11--13-----10--11-13-----10-11----13|
G|------------------------------------------------------------------------------------------------|
D|------------------------------------------------------------------------------------------------|
A|------------------------------------------------------------------------------------------------|
E|------------------------------------------------------------------------------------------------|

e|-------------------------------10h11r10----------10------------------------8----10|
B|--11--10--------------10--11------------11--13-----------------8--10--11----------|
G|----------12--11--12------------------------------------8--10---------------------|
D|----------------------------------------------------------------------------------|
A|----------------------------------------------------------------------------------|
E|----------------------------------------------------------------------------------|

e|--8--8-------------------------------------------------------------------------------|
B|--------11--11-----10--10--8--10---------8/10--10---------------------9h11r9--8-----8|
G|--------------------------------------10------------10--9--10--8--10-----------------|
D|-------------------------------------------------------------------------------------|
A|-------------------------------------------------------------------------------------|
E|-------------------------------------------------------------------------------------|



************************************

| /   slide up
| \   slide down
| h   hammer-on
| p   pull-off
| ~   vibrato
| +   harmonic
| x   Mute note
| b   Bend
| pb  Pre-bend
| br  Bend release
| pbr Pre-bend release
| brb Bend release bend

************************************
Tap to rate this tab
# A B C D E F G H I J K L M N O P Q R S T U V W X Y Z