Song name
# A B C D E F G H I J K L M N O P Q R S T U V W X Y Z

Luis Miguel - La Barca tab

Luis Miguel - La Barca
 traducida por aldoalain  


 Capo en 1er traste 

|-----------------------/12-12-12-12----14-12-10--9-10-12-14\-9--|
|--7/10-10---7-10-8-7-8-/12-------------11-11-11-11-11-11-11--7--|
|-8-----11---8-11-9-8-9------------------------------------------|
|----------------------------------------------------------------|
|----------------------------------------------------------------|
|----------------------------------------------------------------|

|-5-7-9-5-7-9-5-7-9-5-7--9-12-10--9-7-9-10-10/12-----7------7----|
|-7-7-7-7-7-8-8-8-8-8-8-10-10-10-10-9-9--9--9--------8-8-10-8----|
|------------------------------------------------------9-11------|
|----------------------------------------------------------------|
|------------------------------------------------8-9-------------|
|----------------------------------------------------------------|

|------7------7-8--9-10-------10-------10-------10-----12---9-10-|
|-8-10-8-8-10-8-9-10-11-11-13-11-11-13-11-11-13-11---10----10-10-|
|-9-11---9-11-----------12-12----12-12----12-12----11------------|
|----------------------------------------------------------------|
|----------------------------------------------------------------|
|----------------------------------------------------------------|

|-12--9-10-11--8-9-11-8-9-10-7-5-3-6---6-5-3/5-5-----------------|
|-10-10-10--9--9-9--9-9-9--8-8-7-5-8---8-6-5/7-7-----------------|
|----------------------------------------------------------------|
|----------------------------------------------------------------|
|----------------------------------------------------------------|
|----------------------------------------------------------------|
Tap to rate this tab
# A B C D E F G H I J K L M N O P Q R S T U V W X Y Z