Song name
# A B C D E F G H I J K L M N O P Q R S T U V W X Y Z

Luj Yaj - Koj Muaj Kuv Pluag chords

Highlighted       Show chord diagrams
Koj Muaj Kuv Pluag  Luj Yaj
Capo first fret to play along with song.  Thanks for looking!!  Billy Xiong
Tabbed by request.. email tkxiong@yahoo.com


Intro
E----------------------------------------------------------------13---------|
B-------13-14-13-----------------13-14-13---------------13-14-16---16-14-13-|
G-13-15----------15-13-----13-15----------15----13-(P)--15------------------|
D----------------------15--------------------15-----------------------------|
A---------------------------------------------------------------------------|
E---------------------------------------------------------------------------|

E-----------------------------------------------------------------------|
B-------13-14-13-14-13-14-----------------------------------------------|
G-13-15-----------------------------------------------------------------|
D-----------------------------------------------------------------------|
A-----------------------------------------------------------------------|
E-----------------------------------------------------------------------|

                              C
lam muab lub siab no rau koj cia
                       Em                  Am
lub siab paub tias kev hlub yeej mus tsis tau
                                 Dm
txawm tias kuv no hlub koj ntau dhau
                             G
yuav tsis zoo npau rau leeg twg


                              C
yuav ua li cas hlub koj leej muam
                       Em            Am
kuv lub neej pluag koj yog tus neeg muaj
                                Dm
koj niam koj txiv koj neej koj nus
                G          C
luag yuas tsis pub wb sib tau


              Em                        Am
ntawm koj lub neej tsis nco ntshaw leej twg
           C                             G
koj yuav dabtsi los luag nrhiav tau rau koj
Am                        Dm
kuv lub neej tsis muaj dabtsi
           G                        C
txoj kev hlub lub ncauj tsuas hais tau

                                    C
lub ncauj hais tias yuav hlub koj thsaj
                        Em           Am
lub siab poob nthav xav txog wb lub neej
                                  Dm
tsam hnub tom ntej luag tej yuav hais
                G                   C
tias luag tus ntxhais ua neeg txom nyem

Solo

E-------------------------------------------------------------------------|
B----14-16-16B-16-14----------14----------------------------14------------|
G-13-----------------15-13-15----15-13-------------------13----15-13------|
D--------------------------------------11-13-13-Slide-15------------------|
A-------------------------------------------------------------------------|
E-------------------------------------------------------------------------|

E------------------------13----13-16-13-----------------------------------|
B----------------- 14-16----16----------16-------14-----------------------|
G---15-13-15-13-15------------------------15-13---------------------------|
D-------------------------------------------------------------------------|
A-------------------------------------------------------------------------|
E-------------------------------------------------------------------------|

                                      C
lub ncauj hais tias yuav hlub koj thsaj
                           Em              Am
lub siab poob nthav xav txog wb lub neej
                                     Dm
tsam hnub tom ntej luag tej yuav hais
                G                        C
tias luag tus ntxhais ua neeg txom nyem
Tap to rate this tab
# A B C D E F G H I J K L M N O P Q R S T U V W X Y Z