Song name
# A B C D E F G H I J K L M N O P Q R S T U V W X Y Z

Lukas Rossi - Parashute tab

VERSE:
  Im an empty space im an empty road im an empty shallow hollow grave i know
e-0-----0----------0------0----------0-----0-------------0--------------0--|
b-0-----0----------0------0----------0-----0-------------0--------------0--|
g-0-----0----------0------0----------0-----0-------------0--------------0--|
d-0-----2----------5------3----------0-----2-------------5--------------3--|
a-0-----2----------5------3----------0-----2-------------5--------------3--|
E-0-----2----------5------3----------0-----2-------------5--------------3--|

    Where will i belong what will you see in me i will land and touch down
e-0-----------0--------0-----------0-----------0---------------------0--|
b-0-----------0--------0-----------0-----------0---------------------0--|
g-0-----------0--------0-----------0-----------0---------------------0--|
d-0-----------2--------5-----------3-----------0---------------------3--|
a-0-----------2--------5-----------3-----------0---------------------3--|
E-0-----------2--------5-----------3-----------0---------------------3--|

until you hear me until you hear me
e-----------------------------------------------------------------|
b-----------------------------------------------------------------|
g-----------------------------------------------------------------|
d-----------------------------------------------------------------|
a-----------------------------------------------------------------|
E-----------------------------------------------------------------|
CHORUS:
   come on come on feel the sunshine on your face ill be your parashute
e-0----------------0----------------------------0--------------------|
b-0----------------0----------------------------0--------------------|
g-0----------------0----------------------------0--------------------|
d-8----------------0----------------------------2--------------------|
a-8----------------0----------------------------2--------------------|
E-8----------------0----------------------------2--------------------|

i wanna know i wanna know your name yea feel the sunshine on your face
e-0-----------------------------0--------0--------------------------0-|
b-0-----------------------------0--------0--------------------------0-|
g-0-----------------------------0--------0--------------------------0-|
d-4-----------------------------8--------0--------------------------2-|
a-4-----------------------------8--------0--------------------------2-|
E-4-----------------------------8--------0--------------------------2-|

ill be your parashute i wanna know i wanna know your name
e---------------------0--------------------------------------------|
b---------------------0--------------------------------------------|
g---------------------0--------------------------------------------|
d---------------------4--------------------------------------------|
a---------------------4--------------------------------------------|
E---------------------4--------------------------------------------|

THIS IS 100% RIGHT I LEARNED IT BY WATCHING ROSSI.
Tap to rate this tab
# A B C D E F G H I J K L M N O P Q R S T U V W X Y Z