Song name
# A B C D E F G H I J K L M N O P Q R S T U V W X Y Z

Lukas Rossi - Headspin Acoustic tab

I saw another tab for this song, and it was pretty close but it didnt involve some of
key factors to this song.  This tab is 100% right, i learned it from watching Lukas Rossi
play it. This song is in DROP D.("X" mean no singing.)

Verse:I feel you in my bones.To your temple i follow.You'd be so you'd be so
----0----------------------0-0---------------------0-0---------|
----0----------------------0-0---------------------0-0---------|
----0----------------------0-0---------------------0-0---------|
----4----------------------2-4---------------------2-4---------|
----4----------------------2-4---------------------2-4---------|
----4----------------------2-4---------------------2-4---------|
XXXproud of you son.You'd be so you'd be so proud of your son your only son.
--0----------------0------------------------0--------------------|
--0----------------0------------------------0--------------------|
--0----------------0------------------------0--------------------|
--2----------------4------------------------2--------------------|
--2----------------4------------------------2--------------------|
--2----------------4------------------------2--------------------|
XXXXSpiders crawl up the wall and i follow
--0--------------------------0------------------------------|
--0--------------------------0------------------------------|
--0--------------------------0------------------------------|
--4--------------------------2------------------------------|
--4--------------------------2------------------------------|
--4--------------------------2------------------------------|
Bridge:
then i hear you sayXXXlets live for the moment this  time why dont you just
-----------------0-0--0-----------------0----------0-0----0------------0----|
-----------------0-0--0-----------------0----------0-0----0------------0----|
-----------------0-0--0-----------------0----------0-0----0------------0----|
-----------------0-2--4-----------------7----------0-2----4------------2----|
-----------------0-2--4-----------------7----------0-2----4------------2----|
-----------------0-2--4-----------------7----------0-2----4------------2----|
make up your mind.
------------0------0--0--0--0------0------------------------------|
------------0------0--0--0--0------0------------------------------|
------------0------0--0--0--0------0------------------------------|
------------0------5--7--9--12-----0------------------------------|
------------0------5--7--9--12-----0------------------------------|
------------0------0--0--0--0------0------------------------------|

Chorus:
XXXYou make my headspin you make my Headspin Why why do you?
-0----------------0--------------------0---------------------|
-0----------------0--------------------0---------------------|
-0----------------0--------------------0---------------------|
-4----------------7--------------------0---------------------|
-4----------------7--------------------0---------------------|
-4----------------7--------------------0---------------------|X2

Verse2:
XXXXYou love to build me up just to tear me down
--0-----------------------------------------0---------------|
--0-----------------------------------------0---------------|
--0-----------------------------------------0---------------|
--4-----------------------------------------2---------------|
--4-----------------------------------------2---------------|
--4-----------------------------------------2---------------|
XXXXwouldnt it be nice if we found paridise someday
--0-------------------------------------0-------------------|
--0-------------------------------------0-------------------|
--0-------------------------------------0-------------------|
--4-------------------------------------2-------------------|
--4-------------------------------------2-------------------|
--4-------------------------------------2-------------------|

(*SEE BRIDGE*)

(*SEE CHORUS*)

XXXXthen i hear you say you wanna be alone was it some mistake?
--0-----------------0----0-----------0--------------------0----|
--0-----------------0----0-----------0--------------------0----|
--0-----------------0----0-----------0--------------------0----|
--9-----------------0----7-----------9--------------------0----|
--9-----------------0----7-----------9--------------------0----|
--0-----------------0----0-----------0--------------------0----|
XXXXhow would we ever know? i can hear you scream at me scream at me
----------------------0----0---------------0-----------------|
----------------------0----0---------------0-----------------|
----------------------0----0---------------0-----------------|
----------------------7----9---------------0-----------------|
----------------------7----9---------------0-----------------|
----------------------0----0---------------0-----------------|
XXXXim not perfect im not perfect no one is im not perfect im not perfect
--0-----------0--------------0-------------0----------0--------------0----|
--0-----------0--------------0-------------0----------0--------------0----|
--0-----------0--------------0-------------0----------0--------------0----|
--4-----------7--------------0-------------4----------7--------------0----|
--4-----------7--------------0-------------4----------7--------------0----|
--4-----------7--------------0-------------4----------7--------------0----|

Cuz thats the way i want to live my life without your curse
----0--------------------------------0----------------0------|
----0--------------------------------0----------------0------|
----0--------------------------------0----------------0------|
----4--------------------------------7----------------0------|
----4--------------------------------7----------------0------|
----4--------------------------------7----------------0------|X2

(*SEE CHORUS*)

And thats pretty much it. Oh and just to answer a question i hear alot, in the Original
of headspin, everyone always asks what Lukas says right after the 'im not perfect' part
right before the final headspin chorus..well he changes it up often, but most of the 
he says "its you and me to death, now what do you say to that?" hope that helped anyone.
you have any questions about the other versions of headspin just message me.
PEACE!
Tap to rate this tab
 
# A B C D E F G H I J K L M N O P Q R S T U V W X Y Z