Song name
# A B C D E F G H I J K L M N O P Q R S T U V W X Y Z

Lukas Rossi - War Acoustic tab

War (acoustic) by Lukas Rossi
(watch video at http://ca.youtube.com/watch?v=E84ZvzVjIvM for exact timings)

Intro
-----7-8-----------------------------------------------------------------|
------------3----------3--------------------3----------3-----------------|
-------------------------------------------------------------------------|
---5-5-5----4----5----4----5-7--9-7-5-----4----5-----4-------------------|X2
---7-7-7----5----7----5----7-9-10-9-7-----5----7-----5-------------------|
-------------------------------------------------------------------------|

Verse 1
------------------------------------------------------------------------|
--------3---------3--------------------3----------3---------------------|
------------------------------------------------------------------------|
---5----4----5----4----5-7--9-7-5-----4----5-----4----------------------|
---7----5----7----5----7-9-10-9-7-----5----7-----5----------------------|
------------------------------------------------------------------------|
You leave me uninspired
My bloody hands I'll wash
Only fool's gold was fit for a king
You nailed me to your cross
My bloody hands not washed
Leave me dying
See I am not a god... we are

C
But nobody knows
Em
The places that we've been
C
It's time to let you go
Em
I can't go on like this
C                                                      Em
So say your goodbyes, just say your goodbyes

G                          D (with little hamer-ons easy to fig out by ear)
I know how hard it is to put away that gun
I'm gonna watch you die
Gonna watch you die

---------------------------------------------------------------------------|
-------------------3-------------------------------------------------------|
---------------------------------------------------------------------------|
--5-7-9--5-12-10---4-------------------------------------------------------| x2
--7-9-10-7-14-12---5-------------------------------------------------------|
---------------------------------------------------------------------------|

Verse 2
--------------------------------------------------------------------------|
----------------3---------------------------------------------------------|
--------------------------------------------------------------------------|
--5-7-9--7-5---4----------------------------------------------------------|
--7-9-10-9-7---5----------------------------------------------------------|
--------------------------------------------------------------------------|
Have i ripped into you
Like you always want me to do
Yes I've been clode to dead
Have you heard a word I've said
On your knees till they bleed
And pray for me please
Thanks to you I've become
The devil's only son
C
But nobody knows
Em
The places that we've been
C
It's time to let you go
Em
I can't go on like this
C                                     riff*
So say your goodbyes, just say your goodbyes
Riff\/
D-7-9--10-12------------------|watch video for how to hit it in time
A-9-10-12-14------------------|

C                                          D*
So say your goodbyes, just say your goodbyes

C
But nobody knows
Em
The places that we've been
C
It's time to let you go
Em
I can't go on like this
C                                           D*
Let's say our goodbyes, say our goodbyes
C                Em
For now

T-Lee
Tap to rate this tab
# A B C D E F G H I J K L M N O P Q R S T U V W X Y Z