Song name
# A B C D E F G H I J K L M N O P Q R S T U V W X Y Z

Luke Bryan - Country Man tab

-------------------------------------------------------------------------------
			     Country Man- Luke Bryan
-------------------------------------------------------------------------------
Tabbed by:bunnylove09
Email:dlangii@student.cscc.edu

I'm pretty sure this is close. I saw the other tabs and i just didnt feel the country 
when i played it. so I hope that this will help some people out. I've done chords before 
this is my first tab. so i would love comments. thank you

Tuning:

e|------------------------------------------------------------------------------|
B|----------------------------------1/3-1/3-1/3-1-------------------------------|
G|----------------------------------2/4-2/4-2/4-2h0-----------------------------|
D|-5b--------7-7/9-5------5b----------------------------------------------------|
A|-----7-5h7b--------5/7b----7-5h7b---------------------------------------------|
E|------------------------------------------------------------------------------|
Tap to rate this tab
# A B C D E F G H I J K L M N O P Q R S T U V W X Y Z