Luke Bryan - Drinkin Beer And Wastin Bullets tab

intro/verse

e------------------------------------------------------|
B------------------------------------------------------|
G------------------------------------------------------|
D------------------------------------------------------|
A------------------------------------------------------|
E-0-33-0-3-0-3-----------------------------------------| repeat around 5x

chorus

e------------------------------------------------------|
B------------------------------------------------------|
G------------------------------------------------------|
D-3-3-3-3-3-3-3-3---0-0-0-0-0-0-0-0--5-5-5-5-5-5-5-----|
A-3-3-3-3-3-3-3-3---0-0-0-0-0-0-0-0--5-5-5-5-5-5-5-----| REPEAT 2X
E-3-3-3-3-3-3-3-3---0-0-0-0-0-0-0-0--3-3-3-3-3-3-3-----|

Post-Chorus/Pre-Verse 2
e------------------------------------------------------|
B------------------------------------------------------|
G------------------------------------------------------|
D-0-3h-0-3h--0-3h-0-3h--0------------------------------|
A-0-3h-0-3h--0-3h-0-3h--0------------------------------|
E-0-3h-0-3h--0-3h-0-3h--0------------------------------|


verse 2 (same as verse 1)
Chorus 1x then
e-----------------------------|
B-----------------------------|
G-----------------------------|
D-3-3-3-3-3-------------------|
A-3-3-3-3-3-------------------|
E-3-3-3-3-3-------------------|

that carrys into the solo which i do not know but will tab as soon as i figure it out fully.

While the solo is played you just play the chorus..
Then after the solo/bridge it goes
G                           Am
Sittin Here Waitin on a deer   drinkin beer  then you start back playing the regular chorus 1x
then post chorus 1x
then
G          Am                                G
Sittin Here Waitin on a deer drinkin beer wastin bullets
then the outro which is...

e------------------------------------------------------|
B------------------------------------------------------|
G------------------------------------------------------|
D-0-3h-0-3h--0-3h-0-3h--0------------------------------|
A-0-3h-0-3h--0-3h-0-3h--0------------------------------|
E-0-3h-0-3h--0-3h-0-3h--0------------------------------| played while the solo part 2 is played.
That should be it. thanks. please comment and rate on howi  could improve if needed.
Tap to rate this tab
 
# A B C D E F G H I J K L M N O P Q R S T U V W X Y Z