Song name
# A B C D E F G H I J K L M N O P Q R S T U V W X Y Z

Luke Bryan - If You Aint Here To Party tab

	        If You Ain't Here to Party - Luke Bryan
Tuning: Standard

Intro
e|--------------------------------------------|
B|--------------------------------------------|
G|--------------------------------------------|
D|--------10-------------------10-----12b14---|
A|--10h12-------12-----10h12------------------|
E|--------------------------------------------|

Intro Ending #1
e|------------------------------------------------------------|
B|------------------------------------------------------------|
G|------------------------------------------------------------|
D|---------10--12b14---12-12--10-10-9-9-----------------------|
A|--10h12-----------------------------------------------------|
E|------------------------------------------------------------|

Intro Ending #2
e|------------------------------------------------------------|
B|------------------------------------------------------------|
G|------------------------------------------------------------|
D|---------10--12b14---12-12--10-10-9-9-----------------------|
A|--10h12---------------------------------10h12p10------------|
E|------------------------------------------------------------|

Verse Riff
e|-1-1------------3-3--3-3----------------------------------------|
B|-1-2----1-1-----3-3--3-3----------------------------------------|
G|-2-2----0-0-----0-0--0-0----------------------------------------|
D|-3-3----2-2-----0-0--0-0----------------------------------------|
A|-3-3----3-3-----2-2--2-2----------------------------------------|
E|-1-1------------3-3--3-3----------------------------------------|

Lead parts in verse 

Part 1 (High delay and vibrato)
e|-----3-----------------------------3--------------------|
B|---------1------------1/3\1-----------1-----------------|
G|--0----------------------------0------------------------|
D|------------3----------------------------3--------------|
A|--------------------------------------------------------|
E|--------------------------------------------------------|

e|--------------------------------------------------------|
B|--1h3/10----10-10-12-10--3------------------------------|
G|--------------------------------------------------------|
D|--------------------------------------------------------|
A|--------------------------------------------------------|
E|--------------------------------------------------------|

Chorus
e|-1-1------------3-3--3-3---------------|
B|-1-2----1-1-----3-3--3-3---------------|
G|-2-2----0-0-----0-0--0-0---------------|
D|-3-3----2-2-----0-0--0-0---------------|
A|-3-3----3-3-----2-2--2-2---------------|
E|-1-1------------3-3--3-3---------------|

Lead part at end of chorus
..."and get yourself in the zone..."
e|------------------------------------------------------------|
B|------------------------------------------------------------|
G|------------------------------------------------------------|
D|--10h12-10-----------------------------------10-------------|
A|-------------------------------------10h12------------------|
E|-------------------------------10h12------------------------|

Play intro part again and verse part after
Lead parts in 2nd verse
"...in the zydeco cage..."
e|-----------------------------------------------|
B|-----------------------------------------------|
G|-----------------------------------------------|
D|------12h14-12h14-12h14--12--------------------|
A|-/14-------------------------------------------|
E|-----------------------------------------------|

"...Everybody sing along..."
e|----------------------------------------|
B|----------------------------------------|
G|----------------------------------------|
D|---/14--12---------------12-------------|
A|-------------14--12--14------14---------|
E|----------------------------------------|

Play chorus again(Lead parts sound like he is playing around with a C chord)

Then play the solo which i cannot figure out all the way but i belive its in a minor

Play the verse again and go back to the intro.

Then play
e|-1-------3------------|
B|-1---1---3------------|
G|-2---0---0------------|
D|-3---2---0------------|
A|-3---3---2------------|
E|-1-------3------------|

Finish with another solo in a minor and youre done... Thanks for viewing


Tap to rate this tab
 
# A B C D E F G H I J K L M N O P Q R S T U V W X Y Z