Luke Bryan - Country Man tab

e--------------------------------------------0----0-| 
B---------------------------------------------------| 
G--1--------------------------------------2-4--2-4--| 
D--2---6--------7-7-9-7-6-----6-----------X-X--X-X--| 
A--2-----7----7-----------7-9---7-----7---4-6--4-6--|
E----------7-9--------------------7-9---------------| 



e------------------------------------------------| 
B------------------------------------------------| 
G------------------------------------------------| 
D----6--------7-7-9-7-6-----6--------------------|
A------7----7-----------7-9---7-----7---2b-0-----| 
E--------7-9--------------------7-9----------2-0-| 


hope y'all like it e-mail me any queries.... cjsf92@mac.com happy playing :D
Tap to rate this tab
 
# A B C D E F G H I J K L M N O P Q R S T U V W X Y Z