Song name
# A B C D E F G H I J K L M N O P Q R S T U V W X Y Z

Luke Bryan - Country Girl Shake It For Me tab

-----------------------------------------------------------------------------|
Country Girl (Shake It For Me) - Luke Bryan
-----------------------------------------------------------------------------|
Tabbed by: Joe Witkowski
Email: Kangaroojew9@aim.com

Tuning: Standard

Intro:Play Twice
e|---------------------------------------------------------------------------|
B|---------------------------------------------------------------------------|
G|---------------------------------------------------------------------------|
D|-----0h2-----4--2--0h2-----0h2----4--2--0h2-----0h2----4--2--0h2--0--------|
A|---------------------------------------------------------------------------|
E|--0------0--------------3------3-------------2------2---------------3--0---|

Verse 1: Play Twice

   E     G    D/F#   E
e|-------3--------------------|
B|-------3-----3--------------|
G|-------0-----2--------------|
D|-2-----0-----0-----2--------|
A|-2-----2-----------2--------|
E|-0-----3-----2-----0--------|

Verse 2 Play Twice

      E              G             D/F#            E
e|-------0-----0-----3--0-----0--------0-----0--------0-----0----|
B|----------3--------3-----3--------3-----3--------------3-------|
G|-------------------0--------------2----------------------------|
D|----2--------------0--------------0--------------2-------------|
A|----2--------------2-----------------------------2-------------|
E|-0--0-----------3--3-----------2--2-----------0--0-------------|

Chorus: Play Once

       E       E      G       G      A       A      E      D  A
e|--------------------3-------3----------------------------2-----|
B|--------------------3-------3----------------------------3-----|
G|--------------------0-------0------2-------2-------------2--2--|
D|-----2-x-x-x-2------0-x-x-x-0------2-x-x-x-2------2-x-x--0--2--|
A|-----2-x-x-x-2------2-x-x-x-2--0-0-0-x-x-x-0------2-x-x-----0--|
E|-0-0-0-x-x-x-0--3-3-3-x-x-x-3--------x-x-x----0-0-0-x-x--------|

       E       E      G       G      A       A      E       E
e|--------------------3-------3----------------------------------|
B|--------------------3-------3----------------------------------|
G|--------------------0-------0------2-------2-------------------|
D|-----2-x-x-x-2------0-x-x-x-0------2-x-x-x-2------2-x-x-x-2----|
A|-----2-x-x-x-2------2-x-x-x-2--0-0-0-x-x-x-0------2-x-x-x-2----|
E|-0-0-0-x-x-x-0--3-3-3-x-x-x-3--------x-x-x----0-0-0-x-x-x-0----|

The Verse after the first chorus has no guitar part but i usually just play the main 
chords anyway.

    E    G   D/F#  E    E    G   D/F#  E  D  E
e|-------3-------------------3-------------------|
B|-------3----3--------------3----3--------------|
G|-------0----2--------------0----2----9--7--9---|
D|--2----0----0----2----2----0----0----9--7--9---|
A|--2----2---------2----2----2---------7--5--7---|
E|--0----3----2----0----0----3----2--------------|

Play Verse 2 two more times

      E              G             D/F#            E
e|-------0-----0-----3--0-----0--------0-----0--------0-----0----|
B|----------3--------3-----3--------3-----3--------------3-------|
G|-------------------0--------------2----------------------------|
D|----2--------------0--------------0--------------2-------------|
A|----2--------------2-----------------------------2-------------|
E|-0--0-----------3--3-----------2--2-----------0--0-------------|

PLay the Chorus again

       E       E      G       G      A       A      E      D  A
e|--------------------3-------3----------------------------2-----|
B|--------------------3-------3----------------------------3-----|
G|--------------------0-------0------2-------2-------------2--2--|
D|-----2-x-x-x-2------0-x-x-x-0------2-x-x-x-2------2-x-x--0--2--|
A|-----2-x-x-x-2------2-x-x-x-2--0-0-0-x-x-x-0------2-x-x-----0--|
E|-0-0-0-x-x-x-0--3-3-3-x-x-x-3--------x-x-x----0-0-0-x-x--------|

       E       E      G       G      A       A      E       E
e|--------------------3-------3----------------------------------|
B|--------------------3-------3----------------------------------|
G|--------------------0-------0------2-------2-------------------|
D|-----2-x-x-x-2------0-x-x-x-0------2-x-x-x-2------2-x-x-x-2----|
A|-----2-x-x-x-2------2-x-x-x-2--0-0-0-x-x-x-0------2-x-x-x-2----|
E|-0-0-0-x-x-x-0--3-3-3-x-x-x-3--------x-x-x----0-0-0-x-x-x-0----|

Solo

e|-------------------------------------------------------------------------|
B|-------------------------------------------------------------------------|
G|-----------12--12----------------------------12--------------------------|
D|--x-x-x-x--12--12--14p12-----12--12h14--x-x--12---14--14p12-----12-12h14-|
A|--x-x-x-x----------------14-------------x-x------------------14----------|
E|--x-x-x-x-------------------------------x-x------------------------------|

e|-------------------------------------------------------------|
B|--------------------------------------3----------------------|
G|-12--12--------------------------2/4-----2b4r2p0-------------|
D|-12--12--14p12------12--12h14---------------------2----------|
A|----------------14-------------------------------------------|
E|-------------------------------------------------------------|

Solo Continued

e|---------11--11-------11--------11-11------------------15----------------|
B|-------------------------------------------------------------------------|
G|--11b12--------(12)-------11b12-------12r11--9--14b16-----(16)--16r14-12-|
D|-------------------------------------------------------------------------|
A|-------------------------------------------------------------------------|
E|-------------------------------------------------------------------------|


e|--------15----------12---------10------9-----------------------------|
B|-15b17-------12b14------10b12------7b9-------------------------------|
G|------------------------------------------------------------7--9\----|
D|---------------------------------------------5-5--7-7-8-8-9----9\----|
A|-----------------------------------------7-7-------------------7\----|
E|---------------------------------------------------------------------|


e|-3---------------3--------------|
B|-3---3-----------3---3----------|
G|-0---2-----------0---2----------|
D|-0---0---2---2---0---0---2------|
A|-2-------2---2---2-------2------|
E|-3---2---0---0---3---2---0------|

Verse 3

      E              G             D/F#         G G  A A  E E  D D
e|-------0-----0-----3--0-----0--------0-----0-----------------------|
B|----------3--------3-----3--------3-----3--------------------------|
G|-------------------0--------------2--------------------------7-7---|
D|----2--------------0--------------0-----------5-5--7-7--9-9--7-7---|
A|----2--------------2--------------------------5-5--7-7--9-9--5-5---|
E|-0--0-----------3--3-----------2--2-----------3-3--5-5--7-7--------|



Play Verse 2 one more time

      E              G             D/F#            E
e|-------0-----0-----3--0-----0--------0-----0--------0-----0----|
B|----------3--------3-----3--------3-----3--------------3-------|
G|-------------------0--------------2----------------------------|
D|----2--------------0--------------0--------------2-------------|
A|----2--------------2-----------------------------2-------------|
E|-0--0-----------3--3-----------2--2-----------0--0-------------|

Play the chorus 1 more times

       E       E      G       G      A       A      E      D  A
e|--------------------3-------3----------------------------2-----|
B|--------------------3-------3----------------------------3-----|
G|--------------------0-------0------2-------2-------------2--2--|
D|-----2-x-x-x-2------0-x-x-x-0------2-x-x-x-2------2-x-x--0--2--|
A|-----2-x-x-x-2------2-x-x-x-2--0-0-0-x-x-x-0------2-x-x-----0--|
E|-0-0-0-x-x-x-0--3-3-3-x-x-x-3--------x-x-x----0-0-0-x-x--------|

       E       E      G       G      A       A      E       E
e|--------------------3-------3----------------------------------|
B|--------------------3-------3----------------------------------|
G|--------------------0-------0------2-------2-------------------|
D|-----2-x-x-x-2------0-x-x-x-0------2-x-x-x-2------2-x-x-x-2----|
A|-----2-x-x-x-2------2-x-x-x-2--0-0-0-x-x-x-0------2-x-x-x-2----|
E|-0-0-0-x-x-x-0--3-3-3-x-x-x-3--------x-x-x----0-0-0-x-x-x-0----|

Outro

       E       E      G       G      A       A      E      D  A
e|--------------------3-------3----------------------------2-----|
B|--------------------3-------3----------------------------3-----|
G|--------------------0-------0------2-------2-------------2--2--|
D|-----2-x-x-x-2------0-x-x-x-0------2-x-x-x-2------2-x-x--0--2--|
A|-----2-x-x-x-2------2-x-x-x-2--0-0-0-x-x-x-0------2-x-x-----0--|
E|-0-0-0-x-x-x-0--3-3-3-x-x-x-3--------x-x-x----0-0-0-x-x--------|

       E       E      G       G      A       A
e|--------------------3-------3-------------------|
B|--------------------3-------3-------------------|
G|--------------------0-------0------2-------2----|
D|-----2-x-x-x-2------0-x-x-x-0------2-x-x-x-2----|
A|-----2-x-x-x-2------2-x-x-x-2--0-0-0-x-x-x-0----|
E|-0-0-0-x-x-x-0--3-3-3-x-x-x-3--------x-x-x------|



e|-------------------------------------------------------------------------|
B|-------------------------------------------------------------------------|
G|-----------------------------------------------7---------12-12--14-14----|
D|-------------------------------5-5--7-7-8-8--9----14-14------------------|
A|-----------------------5--7-7--------------------------------------------|
E|-0-0--3-3--5-5--6-6--7---------------------------------------------------|


e|---------------------------|
B|------------15--17-17\-----|
G|--15-15--16-----16-16\-----|
D|---------------------------|
A|---------------------------|
E|---------------------------|
Tap to rate this tab
 
# A B C D E F G H I J K L M N O P Q R S T U V W X Y Z