Song name
# A B C D E F G H I J K L M N O P Q R S T U V W X Y Z

Luke Bryan - Thats My Kind Of Night tab

e|----------------------------------------------------------------------|
B|----------------------------------------------------------------------|
G|--9-x-x---------2-----------------------------------------------------|
D|--9-x-x---------2-----------------------------------------------------|  X2
A|--7-x-x--5h7-5--0-----------------------------------------------------|
E|----------------------------------------------------------------------|


then...

e|--0-0000000-------|
B|--3h5555555-------|  X2
G|------------------|
D|------------------|
A|------------------|
E|------------------|
Tap to rate this tab
# A B C D E F G H I J K L M N O P Q R S T U V W X Y Z