Song name
# A B C D E F G H I J K L M N O P Q R S T U V W X Y Z

Luke Bryan - Night One tab

-----------------------------------------------------------------------
			     Night One – Luke Bryan
-----------------------------------------------------------------------
Tabbed by: Asher_104
E-mail:aislingr_104@cfl.rr.com

Tuning: standard

  D
e|------2--2------|
B|---3-------3----|
G|-2-----------2--|
D|-x--------------|
A|-x--------------|
E|-x--------------|

  D
e|------2--2------|
B|---3-------3----|
G|-2-----------2--|
D|-x--------------|
A|-x--------------|
E|-x--------------|

  D
e|------2--2------|
B|---3-------3----|
G|-2-----------2--|
D|-x--------------|
A|-x--------------|
E|-x--------------|

  D
e|------2--2------|
B|---3-------3----|
G|-2-----------2--|
D|-x--------------|
A|-x--------------|
E|-x--------------|

  D
e|------2--2------|
B|---3-------3----|
G|-2-----------2--|
D|-x--------------|
A|-x--------------|
E|-x--------------|

  D
e|------2--2------|
B|---3-------3----|
G|-2-----------2--|
D|-x--------------|
A|-x--------------|
E|-x--------------|

  
D
e|------2--2------|
B|---3-------3----|
G|-2-----------2--|
D|-x--------------|
A|-x--------------|
E|-x--------------|

     Where you been hiding all week girl?
                                  D
e|-------------------------------------2--2-------2|
B|----------------------------------3-------3---3--|
G|--------------------------------2-----------2----|
D|--------------------------------x----------------|
A|--------------------------------x----------------|
E|--------------------------------x----------------|

I been all over this beach girl
                                  D
e|-------------------------------------2--2-------2|
B|----------------------------------3-------3---3--|
G|--------------------------------2-----------2----|
D|--------------------------------x----------------|
A|--------------------------------x----------------|
E|--------------------------------x----------------|

In every bar, in every place
                                  D
e|-------------------------------------2--2-------2|
B|----------------------------------3-------3---3--|
G|--------------------------------2-----------2----|
D|--------------------------------x----------------|
A|--------------------------------x----------------|
E|--------------------------------x----------------|

Somehow I miss your pretty face
                                  D
e|-------------------------------------2--2-------2|
B|----------------------------------3-------3---3--|
G|--------------------------------2-----------2----|
D|--------------------------------x----------------|
A|--------------------------------x----------------|
E|--------------------------------x----------------|

 But you knock me off of my feet girl
                                 D
e|-------------------------------------2--2-------2|
B|----------------------------------3-------3---3--|
G|--------------------------------2-----------2----|
D|--------------------------------x----------------|
A|--------------------------------x----------------|
E|--------------------------------x----------------|

Yeah in the morning I'll be gone, gone, gone
                                 D
e|-------------------------------------2--2-------2|
B|----------------------------------3-------3---3--|
G|--------------------------------2-----------2----|
D|--------------------------------x----------------|
A|--------------------------------x----------------|
E|--------------------------------x----------------|

Oh baby that's just wrong, wrong, wrong
                                 D
e|-------------------------------------2--2-------2|
B|----------------------------------3-------3---3--|
G|--------------------------------2-----------2----|
D|--------------------------------x----------------|
A|--------------------------------x----------------|
E|--------------------------------x----------------|

Wish I had met you on Night One
                                 G
e|-------------------------------2-----2-2-----|
B|-------------------------------0-----0-0-----|
G|-------------------------------0-----0-0-----|
D|-------------------------------0-----0-0-----|
A|-------------------------------2-----3-3-----|
E|-------------------------------3-----3-3-----|

But what a week, we'd had, you and me
     G
e|-2-----2-2----2-----2-2---2-----2-2-----|
B|-0-----0-0----0-----0-0---0-----0-0-----|
G|-0-----0-0----0-----0-0---0-----0-0-----|
D|-0-----0-0----0-----0-0---0-----0-0-----|
A|-2-----3-3----2-----3-3---2-----3-3-----|
E|-3-----3-3----3-----3-3---3-----3-3-----|

Being drunk, tangled up, waking up
     G
e|-2-----2-2----2-----2-2---2-----2-2-----|
B|-0-----0-0----0-----0-0---0-----0-0-----|
G|-0-----0-0----0-----0-0---0-----0-0-----|
D|-0-----0-0----0-----0-0---0-----0-0-----|
A|-2-----3-3----2-----3-3---2-----3-3-----|
E|-3-----3-3----3-----3-3---3-----3-3-----|

No, we wouldn't be done
     G                  D
e|-2-----2-2----2-----2-2---2-----2-2-----|
B|-0-----0-0----3-----3-3---3-----3-3-----|
G|-0-----0-0----2-----2-2---2-----2-2-----|
D|-0-----0-0----0-----0-0---0-----0-0-----|
A|-2-----3-3----x-----x-x---x-----x-x-----|
E|-3-----3-3----x-----x-x---x-----x-x-----|

Just getting started
    D
e|-2-----2-2---2-----2-2-----|
B|-3-----3-3---3-----3-3-----|
G|-2-----2-2---2-----2-2-----|
D|-0-----0-0---0-----0-0-----|
A|-x-----x-x---x-----x-x-----|
E|-x-----x-x---x-----x-x-----|

Every night, another party
D
e|-2-----2-2---2-----2-2-----|
B|-3-----3-3---3-----3-3-----|
G|-2-----2-2---2-----2-2-----|
D|-0-----0-0---0-----0-0-----|
A|-x-----x-x---x-----x-x-----|
E|-x-----x-x---x-----x-x-----|

Making out,  in a crowd
     G
e|-2-----2---2----2-----|
B|-0-----0---0----0-----|
G|-0-----0---0----0-----|
D|-0-----0---0----0-----|
A|-2-----3---3----2-----|
E|-3-----3---3----3-----|

What I give right now
     G
e|-2-----2---2----2-----|
B|-0-----0---0----0-----|
G|-0-----0---0----0-----|
D|-0-----0---0----0-----|
A|-2-----3---3----2-----|
E|-3-----3---3----3-----|

To have seven more days of your sweet kiss
D                                              
e|-2-----2-2---2-----2-2----2-2----2--2|
B|-3-----3-3---3-----3-3----3-3----3--3|
G|-2-----2-2---2-----2-2----2-2----2--2|
D|-0-----0-0---0-----0-0----0-0----0--0|
A|-x-----x-x---x-----x-x----x-x----x--x|
E|-x-----x-x---x-----x-x----x-x----x--x|

Instead of a few more hours feeling like this
D                                              
e|-2-----2-2---2-----2-2----2-2----2--2|
B|-3-----3-3---3-----3-3----3-3----3--3|
G|-2-----2-2---2-----2-2----2-2----2--2|
D|-0-----0-0---0-----0-0----0-0----0--0|
A|-x-----x-x---x-----x-x----x-x----x--x|
E|-x-----x-x---x-----x-x----x-x----x--x|

Slow down, sun
  G
e|-2-----2---2----2-----|
B|-0-----0---0----0-----|
G|-0-----0---0----0-----|
D|-0-----0---0----0-----|
A|-2-----3---3----2-----|
E|-3-----3---3----3-----|

I wish I woulda met you on Night One
                                 D
e|-------------------------------------2--2-------2|
B|----------------------------------3-------3---3--|
G|--------------------------------2-----------2----|
D|--------------------------------x----------------|
A|--------------------------------x----------------|
E|--------------------------------x----------------|

Let me dry those tears from your eyes girl
                                 D
e|-------------------------------------2--2-------2|
B|----------------------------------3-------3---3--|
G|--------------------------------2-----------2----|
D|--------------------------------x----------------|
A|--------------------------------x----------------|
E|--------------------------------x----------------|

Let's make the most of our time girl
                                 D
e|-------------------------------------2--2-------2|
B|----------------------------------3-------3---3--|
G|--------------------------------2-----------2----|
D|--------------------------------x----------------|
A|--------------------------------x----------------|
E|--------------------------------x----------------|

Still got the rest of this night
                                 D
e|-------------------------------------2--2-------2|
B|----------------------------------3-------3---3--|
G|--------------------------------2-----------2----|
D|--------------------------------x----------------|
A|--------------------------------x----------------|
E|--------------------------------x----------------|
For me to hold you so tight
                      D
e|--------------------------2--2-------2|
B|-----------------------3-------3---3--|
G|---------------------2-----------2----|
D|---------------------x----------------|
A|---------------------x----------------|
E|---------------------x----------------|

'Fore we say our goodbyes girls
                                 D
e|-------------------------------------2--2-------2|
B|----------------------------------3-------3---3--|
G|--------------------------------2-----------2----|
D|--------------------------------x----------------|
A|--------------------------------x----------------|
E|--------------------------------x----------------|

Yeah in the morning you'll be gone, gone, gone
                                 D
e|-------------------------------------2--2-------2|
B|----------------------------------3-------3---3--|
G|--------------------------------2-----------2----|
D|--------------------------------x----------------|
A|--------------------------------x----------------|
E|--------------------------------x----------------|

So baby let's just hold on
                      D
e|--------------------------2--2-------2|
B|-----------------------3-------3---3--|
G|---------------------2-----------2----|
D|---------------------x----------------|
A|---------------------x----------------|
E|---------------------x----------------|

Wish I had met you on Night One
                                 G
e|-------------------------------2-----2-2-----|
B|-------------------------------0-----0-0-----|
G|-------------------------------0-----0-0-----|
D|-------------------------------0-----0-0-----|
A|-------------------------------2-----3-3-----|
E|-------------------------------3-----3-3-----|

But what a week, we'd had, you and me
   G
e|-2-----2-2----2-----2-2---2-----2-2-----|
B|-0-----0-0----0-----0-0---0-----0-0-----|
G|-0-----0-0----0-----0-0---0-----0-0-----|
D|-0-----0-0----0-----0-0---0-----0-0-----|
A|-2-----3-3----2-----3-3---2-----3-3-----|
E|-3-----3-3----3-----3-3---3-----3-3-----|

Being drunk, tangled up, waking up
   G
e|-2-----2-2----2-----2-2---2-----2-2-----|
B|-0-----0-0----0-----0-0---0-----0-0-----|
G|-0-----0-0----0-----0-0---0-----0-0-----|
D|-0-----0-0----0-----0-0---0-----0-0-----|
A|-2-----3-3----2-----3-3---2-----3-3-----|
E|-3-----3-3----3-----3-3---3-----3-3-----|

No, we wouldn't be done
   G                  D
e|-2-----2-2----2-----2-2---2-----2-2-----|
B|-0-----0-0----3-----3-3---3-----3-3-----|
G|-0-----0-0----2-----2-2---2-----2-2-----|
D|-0-----0-0----0-----0-0---0-----0-0-----|
A|-2-----3-3----x-----x-x---x-----x-x-----|
E|-3-----3-3----x-----x-x---x-----x-x-----|

Just getting started
   D
e|-2-----2-2---2-----2-2-----|
B|-3-----3-3---3-----3-3-----|
G|-2-----2-2---2-----2-2-----|
D|-0-----0-0---0-----0-0-----|
A|-x-----x-x---x-----x-x-----|
E|-x-----x-x---x-----x-x-----|

Every night, another party
   D
e|-2-----2-2---2-----2-2-----|
B|-3-----3-3---3-----3-3-----|
G|-2-----2-2---2-----2-2-----|
D|-0-----0-0---0-----0-0-----|
A|-x-----x-x---x-----x-x-----|
E|-x-----x-x---x-----x-x-----|

Making out,  in a crowd
   G
e|-2-----2---2----2-----|
B|-0-----0---0----0-----|
G|-0-----0---0----0-----|
D|-0-----0---0----0-----|
A|-2-----3---3----2-----|
E|-3-----3---3----3-----|

What I give right now
   G
e|-2-----2---2----2-----|
B|-0-----0---0----0-----|
G|-0-----0---0----0-----|
D|-0-----0---0----0-----|
A|-2-----3---3----2-----|
E|-3-----3---3----3-----|

To have seven more days of your sweet kiss
   D                                              
e|-2-----2-2---2-----2-2----2-2----2--2|
B|-3-----3-3---3-----3-3----3-3----3--3|
G|-2-----2-2---2-----2-2----2-2----2--2|
D|-0-----0-0---0-----0-0----0-0----0--0|
A|-x-----x-x---x-----x-x----x-x----x--x|
E|-x-----x-x---x-----x-x----x-x----x--x|

Instead of a few more hours feeling like this
   D                                              
e|-2-----2-2---2-----2-2----2-2----2--2|
B|-3-----3-3---3-----3-3----3-3----3--3|
G|-2-----2-2---2-----2-2----2-2----2--2|
D|-0-----0-0---0-----0-0----0-0----0--0|
A|-x-----x-x---x-----x-x----x-x----x--x|
E|-x-----x-x---x-----x-x----x-x----x--x|

Slow down, sun
   G
e|-2-----2---2----2-----|
B|-0-----0---0----0-----|
G|-0-----0---0----0-----|
D|-0-----0---0----0-----|
A|-2-----3---3----2-----|
E|-3-----3---3----3-----|

I wish I woulda' met you on Night One
                                 D
e|-------------------------------------2--2-------2|
B|----------------------------------3-------3---3--|
G|--------------------------------2-----------2----|
D|--------------------------------x----------------|
A|--------------------------------x----------------|
E|--------------------------------x----------------|

Girl we'd had had one hell of a night
                                 D
e|-------------------------------------2--2-------2|
B|----------------------------------3-------3---3--|
G|--------------------------------2-----------2----|
D|--------------------------------x----------------|
A|--------------------------------x----------------|
E|--------------------------------x----------------|

If I had met you on night one
                                 D
e|-------------------------------------2--2-------2|
B|----------------------------------3-------3---3--|
G|--------------------------------2-----------2----|
D|--------------------------------x----------------|
A|--------------------------------x----------------|
E|--------------------------------x----------------|

Yeah in the morning we'll be gone, gone, gone                                
                                 D

e|-------------------------------------2--2-------2|
B|----------------------------------3-------3---3--|
G|--------------------------------2-----------2----|
D|--------------------------------x----------------|
A|--------------------------------x----------------|
E|--------------------------------x----------------|
  
Oh baby that's just wrong
                               D
e|-------------------------------------2--2-------2|
B|----------------------------------3-------3---3--|
G|--------------------------------2-----------2----|
D|--------------------------------x----------------|
A|--------------------------------x----------------|
E|--------------------------------x----------------|

Wish I had met you on Night One
                                 G
e|-------------------------------2-----2-2-----|
B|-------------------------------0-----0-0-----|
G|-------------------------------0-----0-0-----|
D|-------------------------------0-----0-0-----|
A|-------------------------------2-----3-3-----|
E|-------------------------------3-----3-3-----|

But what a week, we'd had, you and me
   G
e|-2-----2-2----2-----2-2---2-----2-2-----|
B|-0-----0-0----0-----0-0---0-----0-0-----|
G|-0-----0-0----0-----0-0---0-----0-0-----|
D|-0-----0-0----0-----0-0---0-----0-0-----|
A|-2-----3-3----2-----3-3---2-----3-3-----|
E|-3-----3-3----3-----3-3---3-----3-3-----|

Being drunk, tangled up, waking up
     G
e|-2-----2-2----2-----2-2---2-----2-2-----|
B|-0-----0-0----0-----0-0---0-----0-0-----|
G|-0-----0-0----0-----0-0---0-----0-0-----|
D|-0-----0-0----0-----0-0---0-----0-0-----|
A|-2-----3-3----2-----3-3---2-----3-3-----|
E|-3-----3-3----3-----3-3---3-----3-3-----|






No, we wouldn't be done
     G                  D
e|-2-----2-2----2-----2-2---2-----2-2-----|
B|-0-----0-0----3-----3-3---3-----3-3-----|
G|-0-----0-0----2-----2-2---2-----2-2-----|
D|-0-----0-0----0-----0-0---0-----0-0-----|
A|-2-----3-3----x-----x-x---x-----x-x-----|
E|-3-----3-3----x-----x-x---x-----x-x-----|

Just getting started
    D
e|-2-----2-2---2-----2-2-----|
B|-3-----3-3---3-----3-3-----|
G|-2-----2-2---2-----2-2-----|
D|-0-----0-0---0-----0-0-----|
A|-x-----x-x---x-----x-x-----|
E|-x-----x-x---x-----x-x-----|

Every night, another party
D
e|-2-----2-2---2-----2-2-----|
B|-3-----3-3---3-----3-3-----|
G|-2-----2-2---2-----2-2-----|
D|-0-----0-0---0-----0-0-----|
A|-x-----x-x---x-----x-x-----|
E|-x-----x-x---x-----x-x-----|

Making out,  in a crowd
     G
e|-2-----2---2----2-----|
B|-0-----0---0----0-----|
G|-0-----0---0----0-----|
D|-0-----0---0----0-----|
A|-2-----3---3----2-----|
E|-3-----3---3----3-----|

What I give right now
     G
e|-2-----2---2----2-----|
B|-0-----0---0----0-----|
G|-0-----0---0----0-----|
D|-0-----0---0----0-----|
A|-2-----3---3----2-----|
E|-3-----3---3----3-----|

To have seven more days of your sweet kiss
D                                              
e|-2-----2-2---2-----2-2----2-2----2--2|
B|-3-----3-3---3-----3-3----3-3----3--3|
G|-2-----2-2---2-----2-2----2-2----2--2|
D|-0-----0-0---0-----0-0----0-0----0--0|
A|-x-----x-x---x-----x-x----x-x----x--x|
E|-x-----x-x---x-----x-x----x-x----x--x|

Instead of a few more hours feeling like this
D                                              
e|-2-----2-2---2-----2-2----2-2----2--2|
B|-3-----3-3---3-----3-3----3-3----3--3|
G|-2-----2-2---2-----2-2----2-2----2--2|
D|-0-----0-0---0-----0-0----0-0----0--0|
A|-x-----x-x---x-----x-x----x-x----x--x|
E|-x-----x-x---x-----x-x----x-x----x--x|

Slow down, sun
  G
e|-2-----2---2----2-----|
B|-0-----0---0----0-----|
G|-0-----0---0----0-----|
D|-0-----0---0----0-----|
A|-2-----3---3----2-----|
E|-3-----3---3----3-----|

I wish I woulda’ met you on Night One
                       D
e|--------------------------2--2-------2|
B|-----------------------3-------3---3--|
G|---------------------2-----------2----|
D|---------------------x----------------|
A|---------------------x----------------|
E|---------------------x----------------|

I wish I woulda’ met you on Night One
                      D
e|--------------------------2--2-------2|
B|-----------------------3-------3---3--|
G|---------------------2-----------2----|
D|---------------------x----------------|
A|---------------------x----------------|
E|---------------------x----------------|


Yeah, yeah
             D
e|----------------2--2-------2|
B|-------------3-------3---3--|
G|-----------2-----------2----|
D|-----------x----------------|
A|-----------x----------------|
E|-----------x----------------|

I wish I woulda’ met you on Night One
                      D
e|--------------------------2--2-------2|
B|-----------------------3-------3---3--|
G|---------------------2-----------2----|
D|---------------------x----------------|
A|---------------------x----------------|
E|---------------------x----------------|
Tap to rate this tab
 
# A B C D E F G H I J K L M N O P Q R S T U V W X Y Z