Luke Pickett - Casino Brawl tab

Casino Brawl by Luke Pickett

Tabbed by xhenry

I've based this tab around this video 
http://www.youtube.com/watch?v=4GutxD0un1o
Of course it's not going to be perfect but it's close.

Standard tuning

Capo 1st

/ = slide up

Intro

|-----------------|-----------------|-----------------|-----------------|
|-------0-------0-|-------0-------0-|-------0-------0-|-------0-------0-|
|---0-------0-----|---0-------0-----|---0-------0-----|---0-------0-----|
|-----------------|-----------------|-----------------|-----------------|
|-----------------|-----------------|-----------------|-----------------|
|-8---8---8---8---|-8---8---8---8---|-0---0---0---0---|-0---0---0---0---|

1st verse

|-------0-------0-|-------0-------0-|-------0-------0-|-------0-------0-|
|-------0-------0-|-------0-------0-|-------0-------0-|-------0-------0-|
|---0-------0-----|---0-------0-----|---0-------0-----|---0-------0-----|
|-----------------|-----------------|-----------------|-----------------|
|-----------------|-----------------|-----------------|-----------------|
|-8---8---8---8---|-8---8---8---8---|-0---0---0---0---|-0---0---0---0---|

Pre-chorus

|-------0-------0-|---------0---------0-|-------0-------0-|-------0-------0-|
|-------0-------0-|---------0---------0-|-------0-------0-|-------0-------0-|
|---0-------0-----|----0---------0------|---0-------0-----|---0-------0-----|
|-----------------|---------------------|-----------------|-----------------|
|-----------------|---------------------|-----------------|-----------------|
|-8---8---8---8---|-10---10---10---10---|-5---5---5---5---|-5---5---5---5---|

Chorus

|-------0-------0-|-------0-------0-|-------0-------0-|-------0-------0-|
|-------0-------0-|-------0-------0-|-------0-------0-|-------0-------0-|
|---0-------0-----|---0-------0-----|---0-------0-----|---0-------0-----|
|-----------------|-----------------|-----------------|-----------------|
|-7---7---7---7---|-7---7---7---7---|-7---7---7---7---|-7---7---7---7---|
|-8---8---8---8---|-8---8---8---8---|-0---0---0---0---|-0---0---0---0---|

2nd verse

|-------0-------0-|-------0-------0-|-------0-------0-|-------0-------0-|
|-------0-------0-|-------0-------0-|-------0-------0-|-------0-------0-|
|---0-------0-----|---0-------0-----|---0-------0-----|---0-------0-----|
|-9---9---9---9---|-9---9---9---9---|-9---9---9---9---|-9---9---9---9---|
|-7---7---7---7---|-7---7---7---7---|-7---7---7---7---|-7---7---7---7---|
|-8---8---8---8---|-8---8---8---8---|-0---0---0---0---|-0---0---0---0---|

2nd Pre-chorus

|-------0-------0-|---------0---------0-|-------0-------0-|-------0-------0-|
|-------0-------0-|---------0---------0-|-------0-------0-|-------0-------0-|
|---0-------0-----|----0---------0------|---0-------0-----|---0-------0-----|
|-----------------|---------------------|-----------------|-----------------|
|-----------------|---------------------|-----------------|-----------------|
|-8---8---8---8---|-10---10---10---10---|-5---5---5---5---|-5---5---5---5---|

2nd Chorus

|-------0-------0-|-------0-------0-|-------0-------0-|-------0-------0-|
|-------0-------0-|-------0-------0-|-------0-------0-|-------0-------0-|
|---0-------0-----|---0-------0-----|---0-------0-----|---0-------0-----|
|-----------------|-----------------|-----------------|-----------------|
|-7---7---7---7---|-7---7---7---7---|-7---7---7---7---|-7---7---7---7---|
|-8---8---8---8---|-8---8---8---8---|-0---0---0---0---|-0---0---0---0---|

|-------0-------0-|---------0---------0-|-------0-------0-|-------0-------0-|
|-------0-------0-|---------0---------0-|-------0-------0-|-------0-------0-|
|---0-------0-----|----0---------0------|---0-------0-----|---0-------0-----|
|---0-------0-----|----0---------0------|---0-------0-----|---0-------0-----|
|-7---7---7---7---|--9----9----9----9---|-7---7---7---7---|-7---7---7---7---|
|-8---8---8---8---|-10---10---10---10---|-5---5---5---5---|-5---5---5---5---|

Bridge

|------0---0-----0---0---0-----0--------0---0-----0---0---0-----0---|
|--------------0-------------0------------------0-------------0-----|
|----9---9---9-----9---9---9-----9----9---9---9-----9---9---9-----9-|
|-10-------------------------------10-------------------------------|
|-------------------------------------------------------------------|
|-------------------------------------------------------------------|

|-----8---8-----8---8-----10------------10---10----10---10-----10--------|
|---------------------0------0-----------------------------0------0------|
|---9---9---9-----------9------9------9----9----9------------9------9----|
|--------------------------------10-----------------------------------10-|
|-0-----------0---0------------------------------------------------------|
|-----------------------------------8-----------8---8--------------------|

Strum these two chords

|--0--0-|
|--0--0-|
|--9--9-|
|-10--9-|
|--0-10-|
|--0--8-|

then let them ring

and end with this

|--0--0----|
|--0--0----|
|--0--0--0-|
|-10/12-10-|
|--0--0--0-|
|--8/10--0-|

Please comment and rate :)
Tap to rate this tab
 
# A B C D E F G H I J K L M N O P Q R S T U V W X Y Z