Song name
# A B C D E F G H I J K L M N O P Q R S T U V W X Y Z

Luke Pickett - Casino Brawl tab

The Casino Brawl
Luke Pickett

Tabs transposed by: Jeff Shibby
http://www.youtube.com/watch?v=ia3e9DcZyGQ


Notes:

-Capo on 3rd fret. 
-The first note (8) played with a capo on the 3rd fret will be the 11th on your fretboard
-All doubled up strings are up strokes
-This song has a real strummy flow to it. Most single notes in this tab can be strummed along


Intro

e|-------------------0--------------------------------------------------------------|
B|-------------------0--------------------------------------------------------------|
G|----------------------------------------------------------------------------------|
D|----------9------------------9---------9---------9---------9---------9---------9--|
A|----10---10---10-------10---10---10---10---10---10---10---10---10---10---10---10--|
E|--8----8----8----8---8----8----8----8----0----0----0----0----0----0----0----0-----|

e|---------0--------0--------0--------0--------0--------0--------0--------0---------|
B|---------0--------0--------0--------0--------0--------0--------0--------0---------|
G|----------------------------------------------------------------------------------|
D|----------------------------------------------------------------------------------|
A|----10-------10-------10-------10-------10-------10-------10-------10-------------|
E|--8----8---8----8---8----8---8----8---0----0---0----0---0----0---0----0-----------|


Verse

    Release me. Set me on Fire. 
e|---------0--------0--------0--------0--------0--------0--------0--------0---------|
B|---------0--------0--------0--------0--------0--------0--------0--------0---------|
G|----------------------------------------------------------------------------------|
D|----------------------------------------------------------------------------------|
A|----10-------10-------10-------10-------10-------10-------10-------10-------------|
E|--8----8---8----8---8----8---8----8---0----0---0----0---0----0---0----0-----------| x4

    Bled me dry on a Sunday afternoon.
e|---------0--------0----------0---------0-------0-------0-------0-------0----------|
B|---------0--------0----------0---------0-------0-------0-------0-------0----------|
G|-------------------------------------------0-------0-------0-------0--------------|
D|-------------------------------------------9-------9-------9-------9--------------|
A|----10-------10--------10--------10------0---0---0---0---0---0---0---0------------|
E|--8----8---8----8---10----10---10---10--------------------------------------------| x4


e|---------0--------0--------0--------0--------0--------0--------0--------0---------|
B|---------0--------0--------0--------0--------0--------0--------0--------0---------|
G|----------------------------------------------------------------------------------|
D|----------------------------------------------------------------------------------|
A|----10-------10-------10-------10-------10-------10-------10-------10-------------|
E|--8----8---8----8---8----8---8----8---0----0---0----0---0----0---0----0-----------| x2 no lyrics

    Wide awake and you're hoping for...
e|---------0--------0--------0--------0--------0--------0--------0--------0---------|
B|---------0--------0--------0--------0--------0--------0--------0--------0---------|
G|----------------------------------------------------------------------------------|
D|----------------------------------------------------------------------------------|
A|----10-------10-------10-------10-------10-------10-------10-------10-------------|
E|--8----8---8----8---8----8---8----8---0----0---0----0---0----0---0----0-----------| x4



Tap to rate this tab
 
# A B C D E F G H I J K L M N O P Q R S T U V W X Y Z