Song name
# A B C D E F G H I J K L M N O P Q R S T U V W X Y Z

Luke Pickett - Empty Corridors tab

This is another way only to play that cool intro witouth a capo just too have fun and 
and maybe to figure out if you cloud play it witouth capo

e|------8--6---8---6-----------8---6---8---6--------|
B|--------------------------------------------------|
G|----6--6---6---6---6---6---6---6---6---6--6---6---|
D|--8------------------8---6------------------6-----|
A|--------------------------------------------------|
E|--------------------------------------------------|

e|------4---4------------------10----12----10-------|
b|--------------------------------------------------|
G|----4---4---4------------10-----10----10----------|
D|--4-----------4-4/6---10--------------------------|
A|--------------------------------------------------|
E|--------------------------------------------------|

Figure Out The Times.
Tap to rate this tab
 
# A B C D E F G H I J K L M N O P Q R S T U V W X Y Z