Song name
# A B C D E F G H I J K L M N O P Q R S T U V W X Y Z

Luke Pickett - Casino Brawl tab

Help us improve GuitareTab! Take a short survey!
this is only the first half of the song
but please, use this and add more.
i'll keep working on it
:)

tabs by: Jacob -> jake.z0r@hotmail.com
please enjoy





Capo on 6th Fret
all notes are played relative to capo.

Quick hint:
pretty much the whole first half of the song is played based around this chord:

|---0-----|
|---2-----|
|---1-----|
|---2-----|
|---0-----|
|---------|



Intro (00:00 -> 00:14):

|---------------------------------|---------------------------------|
|---------------------------------|---------------------------------|
|-------1-------1-------1-------1-|-------1-------1-------1-------1-|
|---2-------2-------2-------2-----|---2-------2-------2-------2-----|
|-0---0---0---0---0---0---0---0---|---------------------------------|
|---------------------------------|-0---0---0---0---0---0---0---0---|

|---------------------------------|---------------------------------|
|-------2-------2-------2-------2-|-------2-------2-------2-------2-|
|-------1-------1-------1-------1-|-------1-------1-------1-------1-|
|---2-------2-------2-------2-----|---2-------2-------2-------2-----|
|-0---0---0---0---0---0---0---0---|---------------------------------|
|---------------------------------|-0---0---0---0---0---0---0---0---|



Verse (00:14 -> 01:57):

"Release me..."

|---------------------------------|---------------------------------|
|-------2-------2-------2-------2-|-------2-------2-------2-------2-|
|-------1-------1-------1-------1-|-------1-------1-------1-------1-|
|---2-------2-------2-------2-----|---2-------2-------2-------2-----| (x4)
|-0---0---0---0---0---0---0---0---|---------------------------------|
|---------------------------------|-0---0---0---0---0---0---0---0---|


"Bled me dry..."

|---------------------------------|---------------------------------|
|-------2-------2-------2-------2-|-------2-------2-------2-------2-|
|-------1-------1-------1-------1-|-------1-------1-------1-------1-|
|---2-------2-------2-------2-----|---2-------2-------2-------2-----| (x4)
|-0---0---0---0---4---4---4---4---|---------------------------------|
|---------------------------------|-0---0---0---0---0---0---0---0---|


This part is played twice with the "oh oh oh..."
then 4 times, starting with "You're wide awake..."
|---------------------------------|---------------------------------|
|-------2-------2-------2-------2-|-------2-------2-------2-------2-|
|-------1-------1-------1-------1-|-------1-------1-------1-------1-|
|---2-------2-------2-------2-----|---2-------2-------2-------2-----| (x6)
|-0---0---0---0---0---0---0---0---|---------------------------------|
|---------------------------------|-0---0---0---0---0---0---0---0---|




Verse II (01:57 -> 02:41)

|---------------------------------|
|---2-------2-------2-------2-----|
|---1---1---1---1---1---1---1---1-|
|-------2-------2-------2-------2-|
|-0---0---0---0---0---0---0---0---|
|---------------------------------|




Verse (02:41 -> 3:10)

|---------------------------------|---------------------------------|
|-------2-------2-------2-------2-|-------2-------2-------2-------2-|
|-------1-------1-------1-------1-|-------1-------1-------1-------1-|
|---2-------2-------2-------2-----|---2-------2-------2-------2-----| (x4)
|-0---0---0---0---4---4---4---4---|---------------------------------|
|---------------------------------|-0---0---0---0---0---0---0---0---|

These chords are played over top in the studio version

|---------------------------------|---------------------------------|
|-2---------------0---------------|---------------------------------|
|-1---------------1---------------|-1-------------------------------|
|-2---------------2---------------|-2-------------------------------|
|-0---------------4---------------|-0-------------------------------|
|---------------------------------|---------------------------------|
Related for Casino Brawl tab