Song name
# A B C D E F G H I J K L M N O P Q R S T U V W X Y Z

Luke - Le Robot chords

Highlighted       Show chord diagrams
LUKE - Je suis un robot

(Pour plus de simplicité : CAPO 2 et transposez tout d'un ton vers le bas)

INTRO
F#m, D, A, Bm, F#m x2

E|------------------------------|------------------------------|-------------9-------------9-|
B|------------10--12------9--10-|------------10--12------9--10-|---------12------------12----|
G|--------11--------------------|--------11--------------------|-------------------11--------|
D|----11------------------------|----11------------------------|-----11----------------------|
A|-9----------------------------|-9----------------------------|-12-------------9------------|
E|------------------------------|------------------------------|-----------------------------|

F#m
Ils m’ont coupé les bras
           D
Et mis des pinces,
                      A
Enlevé mon coeur trop mince
Bm           F#m
Je suis un robot

F#m                                  D
Ils m’ont donné le regard d’un autre oeil
                           A
Pour voir plus loin que le ciel
Bm           F#m
Je suis un robot

Bm
A chaque nuit
            F#m
Quand on me laisse
Bm                     A
Je m’éteins mais il me reste
    E            F#m
Des souvenirs en trop

F#m
Ils m’ont coupé les jambes
           D
Et mis des pierres
                         A
De peur que je sois trop fier
Bm           F#m
Je suis un robot

F#m                          D
Et dans ma voix plus rien ne vibre
                      A
Seul mon coeur est de fibre
Bm           F#m
Je suis un robot

Bm                    F#m
Et sous mon masque de fer
Bm                    A
Je sens passer un peu d’air
       E                 F#m
Sur ce qu’il me reste de peau

             D
Mais je veux vivre
            F#m
Même en souffrir
E                           F#m
Avoir une ombre derrière le dos
            D
Je veux lui plaire
            F#m
Me mettre à terre
Bm                     C#7
Sentir de l’eau sur ma peau
                       F#m
Sentir de l’eau sur ma peau

E|------------------------------|------------------------------|
B|------------10--12------9--10-|------------10--12------9--10-|
G|--------11--------------------|--------11--------------------|
D|----11------------------------|----11------------------------|
A|-9----------------------------|-9----------------------------|
E|------------------------------|------------------------------|

F#m                   D
Ils ont effacé mon sourire
                         A
De peur que je puisse en rire
Bm           F#m
Je suis un robot

F#m                         D
Ils m’ont fait un visage de verre
                   A
Mon âme est à découvert
Bm           F#m
Je suis un robot

Bm                        F#m
A chaque nuit quand on me laisse
Bm                           A
Je regarde le temps qu’il me reste
    E              F#m
Planté comme un drapeau

             D
Mais je veux vivre
            F#m
Même en souffrir
E                           F#m
Avoir une ombre derrière le dos
            D
Je veux lui plaire
            F#m
Me mettre à terre
Bm                     C#7
Sentir de l’eau sur ma peau
                       D
Sentir de l’eau sur ma peau

D, F#m, E, F#m
D, F#m,

Bm                     C#7
Sentir de l’eau sur ma peau
                       F#m
Sentir de l’eau sur ma peau

OUTRO
F#m, D, A, Bm, F#m
E|------------------------------|------------------------------|-------------9-------------9-|
B|------------10--12------9--10-|------------10--12------9--10-|---------12------------12----|
G|--------11--------------------|--------11--------------------|-------------------11--------|
D|----11------------------------|----11------------------------|-----11----------------------|
A|-9----------------------------|-9----------------------------|-12-------------9------------|
E|------------------------------|------------------------------|-----------------------------|
Tap to rate this tab
 
# A B C D E F G H I J K L M N O P Q R S T U V W X Y Z