Song name
# A B C D E F G H I J K L M N O P Q R S T U V W X Y Z

Lumen - Marsh Soglasnih tab

Lumen - Marsh soglasnih (march of concordants)

Intro:

0---1/3-0--00-0--3-5-6666---0--1/3-0-00-0--3-5-3333


----0-----3-1-----0-----0-0--0-------3-1-----0--0--3-1--|
----2-----5-3-----2-----2-2--2-------5-3-----2--2--5-1--|
----2-----5-3-----2-----2-2--2-------5-3-----2--2--5-1--|
--------------------------------------------------------|
--------------------------------------------------------|
--------------------------------------------------------|

-----0-----3-1-----0-----0-0--0----3-5-6666-|
-----2-----5-3-----2-----2-2--2----5-7-8888-|
-----2-----5-3-----2-----2-2--2----5-7-8888-|
--------------------------------------------|
--------------------------------------------|
--------------------------------------------|


----0-----3-1-----0-----0-0--0-------3-1-----0--0--3-1--|
----2-----5-3-----2-----2-2--2-------5-3-----2--2--5-1--|
----2-----5-3-----2-----2-2--2-------5-3-----2--2--5-1--|
--------------------------------------------------------|
--------------------------------------------------------|
--------------------------------------------------------|

-----0-----3-1-----0-----0-0--0----3-5-3333-|
-----2-----5-3-----2-----2-2--2----5-7-5555-|
-----2-----5-3-----2-----2-2--2----5-7-5555-|
--------------------------------------------|
--------------------------------------------|
--------------------------------------------|


Verse:

----000000----------0-----3-1-----0-----0-0--0-------3-1-----0--0--3-1--|
----222222----------2-----5-3-----2-----2-2--2-------5-3-----2--2--5-1--|
----222222----------2-----5-3-----2-----2-2--2-------5-3-----2--2--5-1--|  x2
------------------------------------------------------------------------|
------------------------------------------------------------------------|
------------------------------------------------------------------------|

--------------------0-----3-1-----0-----0-0--0-------3-1-----0--0--3-1--|
----000000----------2-----5-3-----2-----2-2--2-------5-3-----2--2--5-1--|
----222222----------2-----5-3-----2-----2-2--2-------5-3-----2--2--5-1--|  x2
----222222--------------------------------------------------------------|
------------------------------------------------------------------------|
------------------------------------------------------------------------|

----0-----3-1-----0-----0-0--0-------3-1-----0--0--3-1--|
----2-----5-3-----2-----2-2--2-------5-3-----2--2--5-1--|
----2-----5-3-----2-----2-2--2-------5-3-----2--2--5-1--|
--------------------------------------------------------|
--------------------------------------------------------|
--------------------------------------------------------|

-----0-----3-1-----0-----0-0--0----3-5-3333-|
-----2-----5-3-----2-----2-2--2----5-7-5555-|
-----2-----5-3-----2-----2-2--2----5-7-5555-|
--------------------------------------------|
--------------------------------------------|
--------------------------------------------|


Chorus:

---------5-----3----------------0---|
---3-----7-----5-----2--0--2----2---|
---5-----7-----5-----4--2--4----2---|
---5-----------------4--2--4--------|
------------------------------------|
------------------------------------|

--0-----5----------------0----------|
--2-----7-----2--0--2----2----------|
--2-----7-----4--2--4----2----------|
--------------4--2--4---------------|
------------------------------------|
------------------------------------|


Bridge:

--000000------------------000000------666666----------------|
--222222------666666------222222------888888----------------|
--222222------888888------222222------888888----------------|
--------------888888----------------------------------------|
------------------------------------------------------------|
------------------------------------------------------------|

--0----3----5-----------------------|
--2----5----7-----------------------|
--2----5----7-----------------------| x2
------------------------------------|
------------------------------------|
------------------------------------|

Chorus x2


Intro x2


Tabs by Denchik :)
Tap to rate this tab
# A B C D E F G H I J K L M N O P Q R S T U V W X Y Z