Song name
# A B C D E F G H I J K L M N O P Q R S T U V W X Y Z

Lumineers - Flowers In Your Hair tab

Intro

       G

E|-----------------------------------------------|
B|--------3----------3----------3----------3-----|
G|-----0----------0----------0----------0--------|
D|----------------------0h2----------------------|    X 4
A|-----------0h2-------------------0h2-----------|
E|--3--------------------------------------------|




Verse 1 and 2


       G                                                                          G

E|-----------------------------------------------------------------------------------------|
B|--------3----------3----------3----------3--------3----------3----------3----------3-----|
G|-----0----------0----------0----------0--------0----------0----------0----------0--------|
D|----------------------0h2---------------------------------------0h2----------------------|
A|-----------0h2-------------------0h2-----------------0h2-------------------0h2-----------|
E|--3-----------------------------------------3--------------------------------------------|

             When     we    were    younger       we thought,                     
e---very---one    was     on     our


       G                                                                          G

E|-----------------------------------------------------------------------------------------|
B|--------3----------3----------3----------3--------3----------3----------3----------3-----|
G|-----0----------0----------0----------0--------0----------0----------0----------0--------|
D|----------------------0h2---------------------------------------0h2----------------------|
A|-----------0h2-------------------0h2-----------------0h2-------------------0h2-----------|
E|--3-----------------------------------------3--------------------------------------------|

     side             Then     we    grew      a      little                             
and       ro--man---ti----cized    the


       C add9                                                                    C add9

E|--------------------------------------------------------------------------------------|
B|--------3----------3----------3----------3--------3----------3----------3----------3--|
G|-----0----------0-----0h2--2----------0--------0----------0-----0h2--2----------0-----|
D|-----------0h2-------------------0h2-----------------0h2-------------------0h2--------|
A|--3-----------------------------------------3-----------------------------------------|
E|--------------------------------------------------------------------------------------|

      time              I                 saw                              
Flo--------wers                in     your      hair


       G                                                                          G

E|-----------------------------------------------------------------------------------------|
B|--------3----------3----------3----------3--------3----------3----------3----------3-----|
G|-----0----------0----------0----------0--------0----------0----------0----------0--------|
D|----------------------0h2---------------------------------------0h2----------------------|
A|-----------0h2-------------------0h2-----------------0h2-------------------0h2-----------|
E|--3-----------------------------------------3--------------------------------------------|




       D                                                          C add9

E|------------------------------------------------------------------|
B|----------3----------3----------3--------3----------3----------3--|
G|--0h2--2-----0h2--2-----0h2--2--------0----------0-----0h2--2-----|
D|--------------------------------------------0h2-------------------|
A|-----------------------------------3------------------------------|
E|------------------------------------------------------------------|

      Takes   a   boy   to    live   but takes a man     to   pretend     he     was  there


       G

E|-----------------------------------------------|
B|--------3----------3----------3----------3-----|
G|-----0----------0----------0----------0--------|
D|----------------------0h2----------------------|    X 4
A|-----------0h2-------------------0h2-----------|
E|--3--------------------------------------------|



Chorus

                   Em7          D/A
So be in my eyes

              G
Be in my heart

              Em7                D/A
Be in my eyes ai yai yai

              G
Be in my heart



Verse 3

G
So now I think that I could love you back
And I hope it's not too late cause you're so attractive

             C add9
And the way you move

                          G
I won't close my eyes

               D/A
It takes a man to live

               C add9                                         G
It takes a woman to make him compromise



Chorus

                   Em7          D/A
So be in my eyes

              G
Be in my heart

              Em7                D/A
Be in my eyes ai yai yai
Be in my


       G

E|--X------------------------------------X----|
B|--3-----------3----------3----------3--3----|
G|--0--------0----------0----------0-----0----|
D|--0--------------0h2-------------------0----|
A|--2---0h2-------------------0h2--------2----|
E|--3-------------------------------------3---|

    heart



Comment:

I use my pinky to mute the first string (high E) because I think there are no high notes 
in the song. But you can press that string on the third fret throughout the whole song 
(making the D/A become D sus4/A) and it sounds good too.

I hope you find my transcription helpful :)

Paco Sevilla
Tap to rate this tab
 
# A B C D E F G H I J K L M N O P Q R S T U V W X Y Z