Song name
# A B C D E F G H I J K L M N O P Q R S T U V W X Y Z

Lumineers - Elouise chords

Highlighted       Show chord diagrams
I'm not 100% sure about the Intro (+Interlude+Outro) but it sounds correct.
Hear the song for the strumming pattern!
(http://www.youtube.com/watch?v=zeQiTKbDJkQ)

Tuning: EADGBE (standard)

No Capo

Chords:
C      = x|3|2|0|1|0
G      = 3|2|0|0|0|3
F      = x|3|3|2|1|x
Am     = x|0|2|2|1|0
Dm*    = x|x|3|0|3|x
Em*    = x|x|5|0|5|x
Fadd9* = x|x|5|0|6|x
"*" - probably not the correct chord name but who cares...?

-Intro (2x):
  C         Dm*    Em*      C       G       C
e---------------------------0--0-0--3--3-3--0--|
B---------------3-3----5----1--1-1--0--0-0--1--|
G-------0-0-----0-0----0----0--0-0--0--0-0--0--|
D-0--2--2-2--3--3-3/5--5----2--2-2--0--0-0--2--|
A-3--3--3-3-----------------3--3-3--2--2-2--3--|
E-----------------------------------3--3-3-----|

(-looks more complicated then it is. When you play it you'll notice how it sounds right)



-Verse 1:

C          G            F               C           Am
if you're down on your luck, don't get down on yourself
         G            C
It won't do you no good
C                 G          F        C           Am
'Cause I've been there before, for a hundred wars
       G                    C
And I'm still fighting for you

-Chorus:
       C     G         C
E-lou-ise, why'd you leave?
   F    Am      G         C
Please confess, confess to me.
         C    G        C
Sing my song, patiently
 F         Am       G      C
And I'll return, my E-lou-ise.

-Interlude:

  C         Dm*    Em*     C       G       C
e--------------------------0--0-0--3--3-3--0--|
B--------------3-3----5----1--1-1--0--0-0--1--|
G-------0-0----0-0----0----0--0-0--0--0-0--0--|
D-0--2--2-2/3--3-3/5--5----2--2-2--0--0-0--2--|
A-3--3--3-3----------------3--3-3--2--2-2--3--|
E----------------------------------3--3-3-----|

  C         Dm*    Em*     Fadd9   C       G       C
e----------------------------------0--0-0--3--3-3--0--|
B--------------3-3----5-5--6--6-6--1--1-1--0--0-0--1--|
G-------0-0----0-0----0-0--0--0-0--0--0-0--0--0-0--0--|
D-0--2--2-2/3--3-3/5--5-5--5--5-6--2--2-2--0--0-0--2--|
A-3--3--3-3------------------------3--3-3--2--2-2--3--|
E------------------------------------------3--3-3-----|

-Verse 2:
Let's be Alison, let's be David Burn
Let's all learn how to dance
Move your feet in time, put your hand in mine
We will waltz once again.

-Chorus:
Elouise, why'd you leave?
Please confess, confess to me.
Sing my song, patiently
And I'll return, my Elouise.

Elouise, why'd you leave?
Please confess, confess to me.
Song my song, graciously
We will waltz, Elouise.

-Outro (2x):

  C         Dm*    Em*     Fadd9   C       G       C
e----------------------------------0--0-0--3--3-3--0--|
B--------------3-3----5-5--6--6-6--1--1-1--0--0-0--1--|
G-------0-0----0-0----0-0--0--0-0--0--0-0--0--0-0--0--|
D-0--2--2-2/3--3-3/5--5-5--5--5-6--2--2-2--0--0-0--2--|
A-3--3--3-3------------------------3--3-3--2--2-2--3--|
E------------------------------------------3--3-3-----|
Tap to rate this tab
 
# A B C D E F G H I J K L M N O P Q R S T U V W X Y Z