Song name
# A B C D E F G H I J K L M N O P Q R S T U V W X Y Z

Lumineers - Flapper Girl tab

Piano Part

Standard Tuning

Intro
e|----3-----5-3----------3-------|
b|3h5---3h5-----5-3----5---5-3---|
g|------------------5----------5-|
D|-------------------------------|
A|-------------------------------|
E|-------------------------------|

Verse
e|-------------------------------|
b|----8--------------------------|
g|7h9----7h9-----10-10-9---------|
D|-----------10----------10-12-9-|
A|-------------------------------|
E|-------------------------------|

e|------------------------------|
b|------------------------------|
g|------------5-----------------|
D|----5-----7---5----5----------|
A|5h7---5h7--------7---7-5-3----|
E|------------------------------|

At 1:23
e|----3------------------------5----5-8-3---3-------|
b|3h5---3h5----6-6-5-------3h5--3h5-------5---5-3---|
g|----------5--------5-7-4------------------------5-|
D|--------------------------------------------------|
A|--------------------------------------------------|
E|--------------------------------------------------|

At 2:54
e|----3-----5-3----------3-------------|
b|3h5---3h5-----5-3----5---5-3---------|
g|------------------5----------5-------|
D|-------------------------------------|
A|-------------------------------------|
E|-------------------------------------|      2x
Tap to rate this tab
 
# A B C D E F G H I J K L M N O P Q R S T U V W X Y Z