Song name
# A B C D E F G H I J K L M N O P Q R S T U V W X Y Z

Lumineers - Darlene tab

This is sort of strum/picked, it's up to you really. You can listen to it for the 
pattern and the rhythm. It sounds fine just strummed though. My first legit tab, rate and enjoy!

Intro:
e|------------------------------------------|
B|-----5-----3-----1------5-----3---8----1--|
G|-----0-----0-----0------0-----0---0----0--|
D|-----7-----5-----2------7-----5---9----2--|
A|-----7-----5-----3------7-----5---10---3--|
E|------------------------------------------|
Verse:
e|---------------------------------------|
B|-----5-----3-----1------5-----3-----1--|
G|-----0-----0-----0------0-----0-----0--|
D|-----7-----5-----2------7-----5-----2--|
A|-----7-----5-----3------7-----5-----3--|
E|---------------------------------------|
         I  see   you       Standing  there
e|---------------------------------------|
B|-----5-----3-----1------5-----3-----1--|
G|-----0-----0-----0------0-----0-----0--|
D|-----7-----5-----2------7-----5-----2--|
A|-----7-----5-----3------7-----5-----3--|
E|---------------------------------------|
   In your favourite dress  I like what you wear

Chorus:

C   F   C        F   C        F   C        F   C
 Oh Da-rlene  Oh Da-rlene  Oh Da-rlene  Oh Da-rlene

Interlude same as Intro

Verse:
I give you my ring     In your shaking hands
You give me a sting    With your crazy plans

Chorus:

C   F   C        F   C        F   C        F   C
 Oh Da-rlene  Oh Da-rlene  Oh Da-rlene  Oh Da-rlene

|C  F  C|  |C  F  C|  |C  F  C|  |C  F  C|

Then play same as intro twice

C   F     C      F     C      F     C      F     C
 Oh Oh-oh oh  Oh Oh-oh oh  Oh Oh-oh oh  Oh Oh-oh oh


Pretty simple and amazing song.
Tap to rate this tab
 
# A B C D E F G H I J K L M N O P Q R S T U V W X Y Z