Song name
# A B C D E F G H I J K L M N O P Q R S T U V W X Y Z

Lumineers - Classy Girls tab

Ok yall, I just heard this song and thought it was pretty cool, so this is what I 
hear when I listen to this song.

Standard tuning- Capo 5!!

Intro/verse picking pattern:

  
|---------7-------------------7--------|
|-----3-----------3--3---3--------3-3--|
|---0---0----------0--0----0-------0---|
|--------------------------------------|
|--------------------------------------|
|--------------------------------------|

    
|---------8-------------------8--------|
|-----5-----------5--5---5--------5-5--|
|---0---0----------0--0----0-------0---|
|--------------------------------------|
|--------------------------------------|
|--------------------------------------|


  
|---------12-----------------8---------|
|-----7-----------7--7---5--------5-5--|
|---0---0----------0--0----0-------0---|
|--------------------------------------|
|--------------------------------------|
|--------------------------------------|


  C
|---------7-------------------7--------|
|-----3-----------3--3---3--------3-3--|
|---0---0----------0--0----0-------0---|
|--------------------------------------|
|--------------------------------------|              (Repeat this sequence)
|--------------------------------------|

=======================================================

Ok so we are all musical folk, Im not going to give you super in depth, when to 
hit each chord, cause we can all listen to the song for that stuff

Chord Progression: (feel free to pick the g string more often than not)

Palm muted:

G-G-G-G-C-C-C-C-D-D-C-C-G-G-G-G (x4)

Background riff:

|-------7-----7---------8-----8----------12----12-----8----8----7---7----|
|--3--3--3--3--(x2)-5--5--5--5--(x2)-7--7---7--7---5--5-5--5--3-3-3-3-(x2)--
|---0------0---------5-----5---------7-------7------5----5----0---0------|
|------------------------------------------------------------------------|
|------------------------------------------------------------------------|
|------------------------------------------------------------------------|

Outro:

C-C-D-D-C-C-D-D-C-C-G-G


|-------------------------------------| 
|---3----3----3-----3-----------------|
|---0----0----0-----2-----------------|   (Strumming not shown)
|-----------------0-------------------|
|0----2-----3-------------------------|
|-------------------------------------|

End on a big ol' G
Tap to rate this tab
# A B C D E F G H I J K L M N O P Q R S T U V W X Y Z