Song name
# A B C D E F G H I J K L M N O P Q R S T U V W X Y Z

Lumineers - Charlie Boy tab

Intro/Verse:

e|-----------2--4--2-----4--2-----------|
B|--0--2--4-----------4--------4--2--4--|
G|--------------------------------------|
D|--------------------------------------|
A|--------------------------------------|
E|--------------------------------------|

e|-----------2--4--2-----4--2-----------|
B|--0--2--4-----------4--------4--2--0--|
G|--------------------------------------|
D|--------------------------------------|
A|--------------------------------------|
E|--------------------------------------|


Bridge (Oh, oh, oh):

e|--------------------------------------------------|
B|--0--7--4--5--4--2--4--5-4-2-0--7--4--5--4--2--0--|
G|--------------------------------------------------|
D|--------------------------------------------------|
A|--------------------------------------------------|
E|--------------------------------------------------|
Tap to rate this tab
 
# A B C D E F G H I J K L M N O P Q R S T U V W X Y Z