Song name
# A B C D E F G H I J K L M N O P Q R S T U V W X Y Z

Lumineers - Morning Song tab

this tab is based on this live performance: http://www.youtube.com/watch?v=D9-BVZvhgrM

E--------I---------------------|
B---3----I--3------3-----3-----|
G---0h5- I- 0h5----0-----0h5---|
D--------I---------------------|   ----- repeat this 2x
A---3----I- 3------3-----3-----|
E--------I---------------------|

1 Lick
E-------------------------|
B---------3---------------|
G------5------------------|
D---s5--------------------|
A-------------------------|
E-------------------------|

same pattern as first chord
E-------I-----------------------|
B---3---I-- 3------3-----3------|
G---2h4-I--2h4----2-----2h4-----|
D-------I-----------------------|  ------ 2x
A-------I-----------------------|
E---3---I---3------3-----3------|

2 Lick                                  the pattern for the F chord is a little different 
just listen to the live version
E--------------------------------------------------------------------|
B-------------------------------1-----1------------------------------|
G----------------0--------------2---- 0h2----- then you play C and G-| 
D---0------2--------------------3---- 3------------------------------|
A-------------------------------3---- 3------------------------------|
E--------------------------------------------------------------------|
Tap to rate this tab
 
# A B C D E F G H I J K L M N O P Q R S T U V W X Y Z